Cream - Sitting On Top Of The World Chords & Tabs

 

Sitting On Top Of The World Chords & Tabs

Cream Chords & Tabs

Version: 1 Type: Bass Tab 0 ratings
1 star 2 stars 3 stars 4 stars 5 stars
comments

Sitting On Top Of The World Bass Tab

Standard Tuning

Intro
|-------+-------------------------------------|
|---3-5-|-------------------------------2-----|
|-5-----|---------------------------------5-2-|
|-------+-3-3-3-2-3-3-3-2-3-3-3-3-3-2-3-------|

|-------------------------------2-----|
|---------------------------------5---|
|-----------------------------------4-|
|-3-3-3-2-3-3-3-3-2-3-3-3-3-2-3-------|

|-------------------------------3-2---+-------------------------------------|
|-----------------------------------5-|-------------------------------3-3-3-|
|-3-3-3-2-3-3-3-3-4-3-3-3-3-2-3-------|-3-3-3-2-3-3-3-3-2-3-3-3-3-2-3-------|
|-------------------------------------+-------------------------------------|

|------------------------+--------------------------+-3----3---------------|
|-5-----5----5-3--3-5--3-|--------------------3---5-|----5------5----5-----|
|------------------------|-5----45----45----------|--------------5-------|
|------------------------+--------------------------+--------------------3-|

|-----------------------+-------------------------------|
|--------3--------------|-5------------5----------------|
|----------5-3----3-----|----------5-7---5---5--5-3-----|
|-3-----------------6-3-+------5-7------------------6-3-|

Verse 1
|------------------------------------------|
|----------------------------------2-------|
|------------------------------------5-2---|
|-3-3-3-2-3-2-3--3-2-3-2-3-2-3-2-3-------5-|

|-----------------------------------------|
|-----------------------------------------|
|-------------------------------------1-2-|
|-3-3-3-2-3-3-3--3-2-3-3-3-2-3-2-3--3-----|

|---------------------------------------+-----------------------------------|
|---------------------------------------|-----------------------------------|
|-3-3-3-2-3-2-3--1-2-3-3-3-2-3-2-3--1-2-|-3-3-3-2-3-3-3--3-3-3-3--3-3-3-1---|
|---------------------------------------+---------------------------------3-|

|------------------------------+-------------------------+-3----3---------------|
|-5-----5--3-------------------|--------3-3h5------3-3-5-|----5------5----5---5-|
|------------5--------0-2--3-4-|-5------------5----------|--------------5-------|
|--------------3---3-----------+-------------------------+----------------------|

|------------5----5-3---+-------------------------------|
|-5----5-3------------5-|--------------5----------------|
|----------5------------|----------5-7---5---5--5-3-----|
|-----------------------+-3----5-7------------------6-3-|

Verse 2
|-------------------------------------+---------------------------------------|
|-5-5-5-4-5-5-5-5-4-5-5-5-5-4-5-----2-|---------------------------------2-----|
|-------------------------------2-5---|-------------------------------2---5-2-|
|-------------------------------------+-3-3-3-2-3-3-3-3-2-3-3-3-3-2-3---------|

|-------------------------------3-2-----+-------------------------------------|
|-----------------------------------5-2-|-------------------------------2-3-4-|
|-3-3-3-2-3-3-3-3-2-3-3-3-3-2-3---------|-3-3-3-2-3-3-3-3-2-3-3-3-3-2-3-------|
|---------------------------------------+-------------------------------------|

|------------------------+---------------------------+-3----3---------------|
|-5-----5----------------|----------3---3--------3-5-|----5------5----5---5-|
|----------2-5---------2-|-5-----5----5---5----5-----|--------------5-------|
|--------------3---------+---------------------------+----------------------|
[ Tab from: http://www.guitartabs.cc/tabs/c/cream/sitting_on_top_of_the_world_btab.html ]
|-----------------------+-------------------------------|
|-5----5-3--------------|-5------------5----------------|
|----------5-3----3-----|----------5-7---5---5--5-3-----|
|-------------------6-3-+------5-7------------------6-3-|

Guitar Solo
|-----------------------------------------+-------------------------------------|
|-4s5-5-4-5-5-5-5-4-5-5-5-5-4-5-----------|-------------------------------5-3---|
|-------------------------------7-5-7-5---|-----------------------------------4-|
|---------------------------------------7-+-3-3-3-2-3-3-3-3-2-3-3-3-3-2-3-------|

|-------------------------------2-----|
|---------------------------------5-2-|
|-5-5-5-4-5-5-5-5-4-5-5-5-5-4-5-------|
|-------------------------------------|

|-------------------------------------------|
|-----------------------------------------3-|
|-3-3-3-2-3-3-3-3-2-3-3-3-3-2-3-3-2-3-4-5---|
|-------------------------------------------|

|-------------------------+----------------------------+-3----3---------------|
|-5-----5---------------5-|----------------------3---5-|----5------5----5---5-|
|----------2-5------2-5---|-5---5-45---5-45--5-------|--------------5-------|
|--------------3----------+----------------------------+----------------------|

|--------------5----5-3---+-------------------------------|
|-5-----5--3------------5-|--------------5----------------|
|------------5------------|----------5-7---5---5--5-3-----|
|-------------------------+-3----5-7------------------6-3-|

|----------------------------+----------------------------|
|-5-5----5-5----5-5----------|--------5-5----5-5----5-6---|
|----------------------7-5---|--------------------------4-|
|--------------------------7-+-3-3------------------------|

|----------------------5-3-5-3----+----------------------5-3-5-3-----|
|------------------------------5--|------------------------------3-4-|
|-3-3----3-3----3-3---------------|-3-3----3-3----3-3----------------|
|---------------------------------+----------------------------------|

|---------------------------+------------------------|
|-5-----5-----------------2-|--------------------3-5-|
|----------2-5--------2-5---|-5--5-5---5-5---5-5-----|
|--------------3------------+------------------------|

|-3----3---------------+-----------------------+----------------------------|
|----5------5----5---5-|-5----5-3--------------|-5------------5-------------|
|--------------5-------|----------5-3----3-----|----------5-7---5--5-3------|
|----------------------+-------------------6-3-+------5-7--------------6-3--|

Verse 3
|--------------------------3-+----------------------------|
|-5-5----5-5----5-5----3-5---|-5-5----5-5----5-5----3-6---|
|----------------------------|--------------------------4-|
|----------------------------+----------------------------|

|------------------------------------+----------------------------|
|----------------------810-810-----|----------------------------|
|-3-3----3-3----3-3--------------85-|-3-3----3-3----3-3----------|
|------------------------------------+----------------------0-1-2-|

|----------------------+------7---7--7-5-----5------+-3----3--------------|
|----------2-5----5--2-|--------------------------5-|----5------5----5--5-|
|------2-5-------------|-5--5-------------------5---|--------------5------|
|-3--------------------+----------------------------+---------------------|

|-----------------------+--------+---+---|
|-5----5-3--------------|-5------|---|---|
|----------5-3----3-----|--------|---|---|
|-------------------6-3-+------4-+-3-+-3-|
Comments