Cream - Deserted Cities Of The Heart Chords & Tabs

 

Deserted Cities Of The Heart Chords & Tabs

Cream Chords & Tabs

Version: 1 Type: Bass Tab 1 rating
1 star 2 stars 3 stars 4 stars 5 stars
comments

Deserted Cities Of The Heart Bass Tab

   
This Is Pretty Stait-forward and you can play around with it.
You can also try playing it a octave higher. Have fun!
Submitted by James Whitehouse

Verse
  E7/D          D#7/C#      D7/C        E
G |------------|-----------|-----------|------------|
D |*-----------|-----------|-----------|-----------*|
A |*-7-----5-6-|-7-----5-6-|-7-----5-6-|-7-----5-6-*|
E |-----7------|----7------|----7------|----7-------|

Chorus
[ Tab from: http://www.guitartabs.cc/tabs/c/cream/deserted_cities_of_the_heart_btab.html ]
    A         G           F           E                    F#        F           E
G |---------|-----------|-----------|------9--7----------|---------|-----------|------------|
D |-7--7--7-|-5-5--5--5-|-----------|------------9--7----|---------|-----------|------------|
A |---------|-----------|-8-8--8--8-|-7-7-------------10-|-9--9--9-|-8-8--8--8-|-7--7--7--7-|
E |---------|-----------|-----------|--------------------|---------|-----------|------------|

Interlude

     G   A     F          E / / /   E / / /
G |----------|----------|---------|---------|
D |*---------|---------*|---------|---------|
A |*---------|---------*|---------|---------|
E |--3-3-5-5-|-1-1-1-1--|-0-0-0-0-|-0-0-0-0-|

If you have any quaries contact me at jamesparrwhitehouse@hotmail.com
Comments