Crazy Town - Drowning Chords & Tabs

 

Drowning Chords & Tabs

Crazy Town Chords & Tabs

Version: 5 Type: Tab 0 ratings
1 star 2 stars 3 stars 4 stars 5 stars
comments

Drowning Tab

h-hammer on
~-vibrato


Intro/Chorus

E-------------------------------------------------------------
B-------------------------------------------------------------
G-------------------------------------------------------------
D--4-4-4-4-4--6---7--7--6-5-6-4-------------------------------
A--4-4-4-4-4--6---7--7--6-5-6-4-------------------------------
E--2-2-2-2-2--4---5--5--4-7-4-2-------------------------------
Repeat this twice for the intro and 3 times for the chorus

[ Tab from: http://www.guitartabs.cc/tabs/c/crazy_town/drowning_tab_ver_5.html ]
Verse
E----0---0---0---0------0--4-0---0-----0---0---0---0---------2-----
B--4---4---4---4-----4---------4---2-2---4---4---4---4~---0-----4~-
G------------------------------------------------------------------
D------------------------------------------------------------------
A------------------------------------------------------------------
E------------------------------------------------------------------
Repeat twice on first verse, on second verse, repeat three times


Bridge
Drowning in the drama...
E---4---2---6---4------4---2----0----------------------------------
B-2---2---2---2-----2----2----2---2--4-----------------------------
G--------------------------------------6-4--6----------------------
D------------------------------------------------------------------
A------------------------------------------------------------------
E------------------------------------------------------------------



Ending
E---0---0---0---0-----------------------------
B-----4---4---4---4---------------------------
G---------------------------------------------
D---------------------------------------------
A---------------------------------------------
E---------------------------------------------
Repeat that over and over again until fade. That's the whole song
pretty easy if you ask me, but if again you have problems email
at gothmonkey_666@hotmail.com
Keep Rockin'
Comments