Crazy Town - Drowning Chords & Tabs

 

Drowning Chords & Tabs

Crazy Town Chords & Tabs

Version: 4 Type: Tab 0 ratings
1 star 2 stars 3 stars 4 stars 5 stars
comments

Drowning Tab

Artist - Crazy Town
Album  - Darkhouse
Title  - Drownin´

TAB-Explanation

pm - palm mute
h  - hammer on
p  - pull off


Intro/Chorus

[...............Intro repeat twice....................]
[...............Chorus................................]

                    Guitar I				      Guitar II (2nd time)
[ Tab from: http://www.guitartabs.cc/tabs/c/crazy_town/drowning_tab_ver_4.html ]
------------------------------------------------------|----------------------------------|
------------------------------------------------------|--17------------------------------|
--------------(6-66-6666-66--9-9-99898)---------------|-------16-13--11h13--11h13h15-13--|
-4-4--4444-4---6-66-6666-66--9-9-99898--4-44-4444-44--|----------------------------------|
-4-4--4444-4---4-44-4444-44--7-7-77676--4-44-4444-44--|----------------------------------|
-2-2--2222-2----------------------------2-22-2222-22--|----------------------------------|
      pm..          pm..         pm...       pm.. 

        

[..........Refrain repeat twice..............[only 1st time]

--------------------4------------------------|-------------|
------5p4h5p4h5--4h5-5-4h5p4h5---5p4h5p4h----|--7-5--------|
----6--------------------------6----------4--|-------------|
---------------------------------------------|-------------|
---------------------------------------------|-------------|
---------------------------------------------|-------------|.


Listen to the soloparts, it´s really easy, but do it by yourself,
so you will leran to hear the right tones ;)
Tabs (c) by Sorrow
Comments