Crazy Town - Drowning Chords & Tabs

 

Drowning Chords & Tabs

Crazy Town Chords & Tabs

Version: 1 Type: Tab 0 ratings
1 star 2 stars 3 stars 4 stars 5 stars
comments

Drowning Tab

   
Crazy Town
Drowning
By: A. Lyons
Email:ALyons2795@aolc.om

this is the new song just release here in December. 
This sounds totally correct but if u have any corrections fill free to email me!

Drop-Db (Db, Ab, Db, Gb, Bb, Eb)


Intro/Chorus

Eb-------------------------------------------------|---------------------------
Bb-------------------------------------------------|--17---12--10--8h10--8h10-5
Gb-------------------------------------------------|---------------------------
Db-5-5-555-5---0-0-000-0---10-10-10-10-10-10---5---|---------------------------
Ab-5-5-555-5---0-0-000-0---8--8--8--8--8--8----5---|---------------------------
Db-5-5-555-5---0-0-000-0---8--8--8--8--8--8----5---|---------------------------
                              pm........            Gtr. 2        

[ Tab from: http://www.guitartabs.cc/tabs/c/crazy_town/drowning_tab.html ]
Verse
--------------------------5--------5-------------------------3---------|
----6h5-6h5-6h5-6h5----5h6--5h6-5h6------6h5-6h5-6h5-6h5--------6------|
--7------------------------------------7-------------------5-----------|
-----------------------------------------------------------------------|
-----------------------------------------------------------------------|
-----------------------------------------------------------------------|
                                               
Solo Part 1
------------------------------------------------------------------------------
------------------------------------------------------------------------------
------------------------------------------------------------------------------
---19--17--21--19--17h19-----19--17--15--14--10h12----------------------------
------------------------------------------------------------------------------
------------------------------------------------------------------------------
                                    
Solo Part 1
------------------------------------------------------------------------------
------------------------------------------------------------------------------
------------------------------------------------------------------------------
---0000-15-0000-14-19-12-00-15-00-14------------------------------------------
------------------------------------------------------------------------------
------------------------------------------------------------------------------
pm ....    ....          ..    ..  


Thats about it. Email me with corrections. Peace
Comments