Crazy Town - Drowning Chords & Tabs

 

Drowning Chords & Tabs

Crazy Town Chords & Tabs

Version: 1 Type: Bass Tab 0 ratings
1 star 2 stars 3 stars 4 stars 5 stars
comments

Drowning Bass Tab

   
Artist : Crazy Town
Song : Drowning
Album : Darkhorse
Tabbed By : cxtbboy

Intro/Chorus (repeat as necessary)

G -------------------------------------------------------------------------------
D -------------------------------------------------------------------------------
A ---------------------------0--0--0-0-0-----------------------------------------
E -2--2--2-2-2---------------------------2--2-2--2-2-2---------------------------
B -------------2--2-2--2-2-2-----------------------------------------------------

Verse 1
[ Tab from: http://www.guitartabs.cc/tabs/c/crazy_town/drowning_btab.html ]
G -------------------------------------------------------------------------------
D -------------------------------------------------------------------------------
A -4-------2-------0-------0----2--4-------2-------0-------0---------------------
E -------------------------------------------------------------------------------
B -------------------------------------------------------------------------------

Verse 2

G -------------------------------------------------------------------------------
D -------------------------------------------------------------------------------
A -4------2------0------0---2--4------2------0------0---2--4------2------0------0
E -------------------------------------------------------------------------------
B -------------------------------------------------------------------------------

Bridge

G -------------------------------------------------------------------------------
D -------------------------------------------------------------------------------
A -4-4-4-4-4-4-4-4-4-4-4-4-4-4-4-4-4-4-4-4-4-4-4-4-4-4-4-4-4-4-4-4-4-4-4-4-4-4-4-
E -------------------------------------------------------------------------------
B -------------------------------------------------------------------------------
Comments