Crazy Town - Butterfly Chords & Tabs

 

Butterfly Chords & Tabs

Crazy Town Chords & Tabs

Version: 1 Type: Tab 0 ratings
1 star 2 stars 3 stars 4 stars 5 stars
comments

Butterfly Tab

                            Crazy Town
                            "Butterfly"
                             Bass Tab
                          Standard Tuning
                       Tabbed by: Jordy Smith

Part 1(Before singing starts)
G---17------16------14------14-------17-----17--------19-----19-----
D------14------14------14------14------17-----17--------19-----19---
A-0-------0-------0-------0-------15-----15-----15-17-----17-----17-
E-------------------------------------------------------------------


Part 2(Before singing starts)
G---17------16------14------14-------14-----14--------16-----16-----
D------14------14------14------14------15-----15--------17-----17---
A-0-------0-------0-------0-------15-----15-----15/17-----17-----17-
E-------------------------------------------------------------------

[ Tab from: http://www.guitartabs.cc/tabs/c/crazy_town/butterfly_tab.html ]
Part 1(After singing starts)
G----17----16----14----14----14----17-----17--------19-----19-----
D------------------------------------17-----17--------19-----19---
A-12----12----12----12----12----15-----15-----15-17-----17-----17-
E-----------------------------------------------------------------


Part 2(After singing starts)
G----17----16----14----14----14----14-----14--------16-----16-----
D------------------------------------15-----15--------17-----17---
A-12----12----12----12----12----15-----15-----15/17-----17-----17-
E-----------------------------------------------------------------


Part 2(After singing starts) variation
G----17----16----14----14----14----14-----14--------
D------------------------------------15-----15------
A-12----12----12----12----12----15-----15-----15/17-
E---------------------------------------------------

That's not exact but its better than most of the tabs i've seen for 
it. If you have any questions, comments, or corrections, e-mail me at
                    bass_kid_2000@yahoo.com
Comments