Crazy Town - Butterfly Remix Chords & Tabs

 

Butterfly Remix Chords & Tabs

Crazy Town Chords & Tabs

Version: 1 Type: Tab 0 ratings
1 star 2 stars 3 stars 4 stars 5 stars
comments

Butterfly Remix Tab

Song: Butterfly Remix
Band: Crazy Town
From: Butterfly Single
Tab:  Adam Urbanczyk
Mail: pickboy87@cs.com
Tune: Dropped D

This song is really simple. It's basically the original
version except for the chorus. Enjoy!

  Intro/Verses:(With slight delay)
                   Full Bend
E|-----------------10/--\(10)----------------------|
B|--10----13--10----------------10---------10------|
G|*------------------------------------12---------*|
D|*--------------------------------------------12-*|
A|-------------------------------------------------|
D|-------------------------------------------------|
[ Tab from: http://www.guitartabs.cc/tabs/c/crazy_town/butterfly_remix_tab.html ]
  Chorus:
E|-----------------------------------(2)-----------|
B|------------------------------------3------------|
G|*-----------------------------------2-----------*|
D|*-7-----10-----12-------7-----5-----0-----------*|
A|--7-----10-----12-------7-----5-----0------------|
D|--7-----10-----12-------7-----5-----0------------|

  Break:("Come and dance with me...")
E|-------------------------------------------------|
B|-------------------------------------------------|
G|*-----------------------------------------------*|
D|*-----------------------------------------------*|
A|--0-0-0--3-3-3--5-5-5---0-0-0--------------------|
D|------------------------------5-5-5--0-0-0-------|
Comments