Crazy Town - Butterfly Chords & Tabs

 

Butterfly Chords & Tabs

Crazy Town Chords & Tabs

Version: 6 Type: Bass Tab 0 ratings
1 star 2 stars 3 stars 4 stars 5 stars
comments

Butterfly Bass Tab

Butterfly
Crazy Town
BY: Brian Fitzpatrick (brian157@hotmail.com)
Previous Author: Wade Vassallo (wade_mail@email.com)
[ Tab from: http://www.guitartabs.cc/tabs/c/crazy_town/butterfly_btab_ver_6.html ]
G-|-17-----16----14---14-14----|--17----17-------19-----19------|
D-|---14-----14----14------14--|----17----17-------19-----19----|
A-|0-----0-----0-----0--0-----0-|15----15----15/17----17-----17-|
E-|----------------------------|--------------------------------|

G-|-17-----16----14---14-14----|--14----14--(14/16)-16----16----|
D-|---14-----14----14------14--|----15----15(15/17)---17----17--|
A-|0-----0-----0-----0--0-----0|15----15-----15/17------17----17|
E-|----------------------------|--------------------------------|
Comments