Crazy Town - Butterfly Chords & Tabs

 

Butterfly Chords & Tabs

Crazy Town Chords & Tabs

Version: 5 Type: Bass Tab 0 ratings
1 star 2 stars 3 stars 4 stars 5 stars
comments

Butterfly Bass Tab

Hi!! I've tried hard to find the tab for the 6-string bass because it's quite fast.
But here it is!!

The "strange" tuning (E - A - D - F# (!!) - B - E) is very important, because otherwise it will be much more difficult.
...and please e-mail me if there are any corrections!!! (stevie745@hotmai.com)

[ Tab from: http://www.guitartabs.cc/tabs/c/crazy_town/butterfly_btab_ver_5.html ]
E  |--------------------------------------------------------------------------------------------------|
B  |--------------------------------------------------------------------------------------------------|
F# |--------6----------5------------------------------------------------------------------------------|
D  |----------7----------7-------7--------7--------7-----------10-------10-----/12-----12------12-----|
A  |-----------------------7--------7-------7--------7-----------10-------10---/12-------12------12---|
E  |--5----------5---------------5----5-------5----------8----------8--------8-/10---------10---------|


   |--------------------------------------------------------------------------------------------------|
   |--------------------------------------------------------------------------------------------------|
   |--------6----------5----------------------------------------3--------3-----/5------5-------5------|
   |----------7----------7-------7--------7--------7--------------3--------3---/5--------5-------5----|
   |-----------------------7--------7-------7--------7---3----------3--------3-/5----------5----------|
   |--5----------5---------------5----5-------5-------------------------------------------------------|

...and now repeat this several times, but just listen to the song quite often and turn the bass louder
so that you can hear the breaks and so on...

much fun and good luck!!!


steve
Comments