Crazy Town - Butterfly Chords & Tabs

 

Butterfly Chords & Tabs

Crazy Town Chords & Tabs

Version: 4 Type: Bass Tab 0 ratings
1 star 2 stars 3 stars 4 stars 5 stars
comments

Butterfly Bass Tab

This is my favorite song. There is a lead guitar, a bass, and some other guitar
or techno thingy, i'm not sure what it is

/ or \  =  slide
     ^  =  bend
     *  =  tap
   ( )  =  played occasionally
     ~  =  vibrato


Lead Guitar(intro) heavy echo

e--------------8----10/12\10~~~------------------------|
B---10-10*-10*---10----------------10~~~-10-8--10------|
G-------------------------------------------------7^---|
D------------------------------------------------------|
A------------------------------------------------------|
E------------------------------------------------------|

After the intro, the lead plays a slightly different version and the echo isn't
as heavy
[ Tab from: http://www.guitartabs.cc/tabs/c/crazy_town/butterfly_btab_ver_4.html ]
e---------8----10/12\10~~~----------------------------|
B---10~~~---10----------------10~~~-10-8--10----(8)---|
G--------------------------------------------7^-------|
D-----------------------------------------------------|
A-----------------------------------------------------|
E-----------------------------------------------------|

2nd Guitar(I'm not sure if this is right, but it basically follows the bass part)

e-------------------------------------------|
B-------------------------------------------|
G-------------------------------------------|
D-------------------------------------------|
A---3-2-0-0---3-3-5-5---3-2-0-0-------------|
E---------------------------------1-1-3-3---|

Bass

G-------------------------------------------|
D-------------------------------------------|
A---0-0-0-0---3-3-5-5---0-0-0-0-------------|
E---------------------------------1-1-3-3---|

The 2nd guitar and bass always play together and the lead and bass parts play
on and off together through out the song.  Listen to the cd to get it right.
and if u want the lyrics, get them from the cd insert or off the net somewhere.

If u find have any questions or find something wrong, email me at 
zanna89@Hotmail.com

Buh bye
Luv ya
Suzy :)
Comments