Crazy Town - Butterfly Chords & Tabs

 

Butterfly Chords & Tabs

Crazy Town Chords & Tabs

Version: 3 Type: Bass Tab 0 ratings
1 star 2 stars 3 stars 4 stars 5 stars
comments

Butterfly Bass Tab

#---------------------------------YOU BEST NOTE-------------------------------#
#This file is the author's own work and represents their interpretation of the#
#song. You may only use this file for private study, scholarship, or research.#
#-----------------------------------------------------------------------------#

Butterfly
(FLEA)
crazy town

by Brian S.

Bass Intro :
g------17---------16----------14---------14---------------17-|
d----------14---------14----------14---------14--------------|
a---0----------0-----------0----------0----------0----15-----|
e------------------------------------------------------------|
[ Tab from: http://www.guitartabs.cc/tabs/c/crazy_town/butterfly_btab_ver_3.html ]
g---------17--------------19----------19---------|
d-17----------17--------------19----------19-----|
a-----15-----------5/17-----------17----------17-|
e------------------------------------------------|

g------17---------16----------14---------14---------------14-|
d----------14---------14----------14---------14--------------|
a---0----------0-----------0----------0----------0----15-----|
e------------------------------------------------------------|

g---------14-----(14)/(16)--16----------16--------21b-|
d-15----------15-(15)/(17)------17----------17--------|
a-----15----------15//-17-----------17---------17-----|
e-----------------------------------------------------|
  
           This is repeated throughout song.
Comments