Crazy Town - Butterfly Chords & Tabs

 

Butterfly Chords & Tabs

Crazy Town Chords & Tabs

Version: 1 Type: Bass Tab 0 ratings
1 star 2 stars 3 stars 4 stars 5 stars
comments

Butterfly Bass Tab

   
Butterfly
by Crazy Town

-=[Tabbed by IanGonzo]=-
-=iangonzo@hotmail.com=-

Am-F-G

(This is real hard n shld be played fast..)
Rythm:	Am		F	G
e|----------------------------------|
b|----------------------------------|
g|------5---4---0-0----2---2---4----|
d|----7---7---7--7------3-3-3---5-5-|
a|---7-7-7-7-7-7---7--3--3----5--5--|
e|--5----------------1-------3------|

		-=OR=-
	Am		F	G
e|----------------------------------|
b|------1---0-----------------------|
g|----2---2---2-020----2---2---4----|
d|---2-2-2-2-2-2---2----3-3-3---5-5-|
a|--0-----------------3--3----5--5--|
e|-------------------1-------3------|

Main Riff:
e|---------------10h12p10--------------------|
b|-10~---13-10-------------10~---------------|
g|-------------------------------12---14-----|
d|---------------------------------------12--|
a|-------------------------------------------|
e|-------------------------------------------|

.. and goes all through out the song!

Intro:
Come my lady
Come come my lady
you're my butterfly
Sugar.baby (X2)
[ Tab from: http://www.guitartabs.cc/tabs/c/crazy_town/butterfly_btab.html ]
Such a sexy,sexy pretty little thing
Fierce nipple pierce you got me sprung with your tongue ring 
and I ain't gonna lie cause your loving gets me high
So to keep you by my side there's nothing that I won't try
Butterflies in her eyes and looks to kill
Time is passing I'm asking could this be real
Cause I can't sleep I can't hold still
The only thing I really know is she got sex appeal

I can feel too much is never enough
You're always there to lift me up
When these times get rough I was lost Now I'm found 
Ever since you've been around
You're the women that I want 
So yo, I'm putting it down. 

CHORUS: (2x)
Come my lady
Come come my lady
you're my butterfly
Sugar.baby
Come my lady
You're my pretty lady
Ill make your leg shake
You make me go crazy

I don't deserve you unless it's some kind of hidden message 
to show me life is precious
Then I guess it's true
To tell truth, I really never knew 
T'll I met you I was lost and confused
Twisted and used up
Knew a better life existed but thought that I missed it

My lifestyle's wild I was living like a wild child
Trapped on a short leash paroled the police files
And yo. what' s happening now? 
I see the sun breaking shining through dark clouds 
and a vision of you standing out in a crowd.

CHORUS

Hey sugar momma, come and dance with me
The smartest thing you ever did was take a chance with me
So, what ever tickles your fancy
Girl it's you like Sid and Nancy
So sexy....almost evil Talkin' about butterflies in my head
I used to think happy endings were only in the books I read but 
you made me feel alive when I was almost dead

You filled that empty space with the love I used to chase 
and as far as I can see it don't get better than this
So butterfly, here is a song and it's sealed with a kiss 
and a thank you miss.

Come and dance with me,
come and dance with me..

CHORUS
Comments