Crass - Securicor Chords & Tabs

 

Securicor Chords & Tabs

Crass Chords & Tabs

Version: 1 Type: Tab 0 ratings
1 star 2 stars 3 stars 4 stars 5 stars
comments

Securicor Tab

   
Crass - Securicor

Intro
Fade in, extremely distorted.
e----------|
B----------|
G----------|
D--12-12---|
A--12-12---|
E--10-10---|
Repeat until 0:28

As voice fades in, play this once:

e---------------------------|
B---------------------------|
G---------------------------|
D--12-12-12-11-10-9--9------|
A--12-12-12-11-10-9--9------|
E--10-10-10-9---8-7--7------|

"I'm a private in a private army, I'm a private in a private army..."

e-----------------------------------|
B-----------------------------------|
G--------10-10----------------------|
D--12-12-10-10--10-10--10--12-------|
A--12-12-8---8--10-10--10--12-------|
E--10-10--------8---8---8--10-------|


Verse
The main verse progression is very simple, 
not even a progression at all. Just hit this chord four times
 in a down-up-down-up rhythm after every line.
 For instance, right after "Well I'm workin for 
securicor", you do this:
  v  ^   v  ^
e----------------|
B----------------|
G----------------|
D-12-12-12-12----|
A-12-12-12-12----|
E-10-10-10-10----|
[ Tab from: http://www.guitartabs.cc/tabs/c/crass/securicor_tab.html ]
Then, on lines like "For the customer and the public good", you do this again:
*NOTE* This part is played as he sings, and not as an in-betweener for lines.


e-----------------------------------|
B-----------------------------------|
G--------10-10----------------------|
D--12-12-10-10--10-10--10--12-------|
A--12-12-8---8--10-10--10--12-------|
E--10-10--------8---8---8--10-------|


[b]Chorus[/b]
You play this first part right after "Securicor cares", each time he says it.

e---------------------|
B---------------------|
G---------------------|
D--10--10-/--12-12----|
A--10--10-/--12-12----|
E---8---8-/--10-10----|

Then, while he sings "Securicor scares the shit out of you", you play 



e-----------------------------------|
B-----------------------------------|
G--------10-10----------------------|
D--12-12-10-10--10-10--10--12-------|
A--12-12-8---8--10-10--10--12-------|
E--10-10--------8---8---8--10-------|

Then after "You wanna come closer?"


e---------------------|
B---------------------|
G---------------------|
D--10--10-/--12-12----|
A--10--10-/--12-12----|
E---8---8-/--10-10----|

Repeat through the song, and then in the outro, repeat the intro riffage.
Comments