Crass - Do They Owe Us A Living Chords & Tabs

 

Do They Owe Us A Living Chords & Tabs

Crass Chords & Tabs

Version: 2 Type: Bass Tab

Do They Owe Us A Living Bass Tab

DO THEY OWE US A LIVING? by Crass. Album : The Feeding Of The 5000 (1978)
Fuck the politically minded.
:
# verse1 #  *=playX14  #=playX5
G---*--------*-------#-------#-------*---*-------*-------|
D---12--10--12--10--12--10--12--10--12--12--10--12--10---|
A--------------------------------------------------------|
E--------------------------------------------------------|
:
# chorus #
G----------------------------10--10--10--9--9--9---|----------------------------|
D---12--12--12--10--10--10-------------------------|---12--12--12--10--10--10---|
A--------------------------------------------------|----------------------------|
E----------------------X2--------------------------|----------------------------|
:
# verse2 #
G---*------*-----*-------------------------------------|
D---0------0-----0-----0-0--3-3--5-5--7-7--10--12-12---|
A------3------3-----3----------------------------------|
E------------------------------------------------------|
:
Then play chorus, verse2, chorus, verse2, chorus
:
There's something I want to say.
jackhynes :AT: gmail :DOT: com 09.06.04
http://www.geocities.com/jackstabs
[ Tab from: http://www.guitartabs.cc/tabs/c/crass/do_they_owe_us_a_living_btab_ver_2.html ]