Crash Test Dummies - Swatting Flies Chords & Tabs

 

Swatting Flies Chords & Tabs

Crash Test Dummies Chords & Tabs

Version: 1 Type: Tab 0 ratings
1 star 2 stars 3 stars 4 stars 5 stars
comments

Swatting Flies Tab

   
-----------------------------------------------------------------------------
			     Swatting Flies - Crash Test Dummies
-----------------------------------------------------------------------------
Tabbed by: Tim C. (goaliecaine33)
Email: t_caine33@hotmail.com

Tuning: standard tuning
I'm currently working on the rest of the song.  I will post it up later when I am done
with it.  Sorry if you wanted the whole song.  I'll try to tab it as fast as I can.
[ Tab from: http://www.guitartabs.cc/tabs/c/crash_test_dummies/swatting_flies_tab.html ]
Intro: 
     D  D          D  D   D  D  Am Am  Am Am  Am Am
e|---2--2---5--5---2--2---2--2---0--0---0--0---0--0-|
B|---3--3---3--3---3--3---3--3---1--1---1--1---1--1-|
G|---2--2---2--2---2--2---2--2---2--2---2--2---2--2-|
D|-0-------------0---------------2--2---2--2---2--2-|
A|--------0-------------2------0-------------0------|
E|------------------------------------0-------------|

That second chord can be played as a D chord if you have some trouble changing your fingers.

| /  slide up
| \  slide down
| h  hammer-on
| p  pull-off
| ~  vibrato
| +  harmonic
| x  Mute note
=============================================================================
Comments