Cranberries - Zombie Chords & Tabs

 

Zombie Chords & Tabs

Cranberries Chords & Tabs

Version: 4 Type: Bass Tab 0 ratings
1 star 2 stars 3 stars 4 stars 5 stars
comments

Zombie Bass Tab

Basstab!!
Artist:Cranberries
Song title:Zombie
Album:No Need To Argue
Tabbed By: CaSoNLiNe

After the guitar intro on the 2nd snare hit just after the hi-hat you do a slide from 
12 to 0 (you do this only the first time!)

Intro:
E 12\|0-0-0-0-|0-0-3-0-|--------|--------|3-3-3-3-|3-3-5-3-|2-2-2-2-|2-2-3-1-|or|2-2-2-2-|
A ---|--------|--------|3-3-3-3-|3-3-5-3-|--------|--------|--------|--------|
D ---|--------|--------|--------|--------|--------|--------|--------|--------|
G ---|--------|--------|--------|--------|--------|--------|--------|--------|
(last  notes may be played as :E |2-2-3-1-|, but this is not necessary)
Play this 2 times

Verse:
E 0-0-0-0-|0-0-0-0-|--------|--------|3-3-3-3-|3-3-3-3-|2-2-2-2-|2-2-2-2-|
A --------|--------|3-3-3-3-|3-3-3-3-|--------|--------|--------|--------|
D --------|--------|--------|--------|--------|--------|--------|--------|
G --------|--------|--------|--------|--------|--------|--------|--------|
Play this 5 times

Chorus:In your head ...
E 0-0-0-0-|0-0-3-0-|--------|--------|3-3-3-3-|3-3-5-3-|2-2-2-2-|2-2-3-1-|or|2-2-2-2-|
A --------|--------|3-3-3-3-|3-3-5-3-|--------|--------|--------|--------|
D --------|--------|--------|--------|--------|--------|--------|--------|
G --------|--------|--------|--------|--------|--------|--------|--------|
(last 2 notes may be played as :E |2-2-3-1-|, but this is not necessary)
Play this 3 times now
[ Tab from: http://www.guitartabs.cc/tabs/c/cranberries/zombie_btab_ver_4.html ]
Verse:
E 0-0-0-0-|0-0-0-0-|--------|--------|3-3-3-3-|3-3-3-3-|2-2-2-2-|2-2-2-2-|
A --------|--------|3-3-3-3-|3-3-3-3-|--------|--------|--------|--------|
D --------|--------|--------|--------|--------|--------|--------|--------|
G --------|--------|--------|--------|--------|--------|--------|--------|
Play this 5 times again

Chorus:
E 0-0-0-0-|0-0-3-0-|--------|--------|3-3-3-3-|3-3-5-3-|2-2-2-2-|2-2-3-1-|or|2-2-2-2-|
A --------|--------|3-3-3-3-|3-3-5-3-|--------|--------|--------|--------|
D --------|--------|--------|--------|--------|--------|--------|--------|
G --------|--------|--------|--------|--------|--------|--------|--------|
(last 2 notes may be played as : E |2-2-3-1-|, but this is not necessary)
Play this now 4 times

Bridge:(3min52sec)
E 0-0-0-00|000-3-0-|--------|----5-3-|
A --------|--------|3-3-3-33|5-3-----|
D --------|--------|--------|--------|
G --------|--------|--------|--------|
Play this 4 times

Chorus:
E 0-0-0-0-|0-0-3-0-|--------|--------|3-3-3-3-|3-3-5-3-|2-2-2-2-|2-2-3-1-|or|2-2-2-2-|
A --------|--------|3-3-3-3-|3-3-5-3-|--------|--------|--------|--------|
D --------|--------|--------|--------|--------|--------|--------|--------|
G --------|--------|--------|--------|--------|--------|--------|--------|
(last 2 notes may be played as :E |2-2-3-1-|, but this is not necessary)
Play this 3 times

Outro:
E 0-0-0-00|000-3-0-|--------|----5-3-|
A --------|--------|3-3-3-33|5-3-----|
D --------|--------|--------|--------|
G --------|--------|--------|--------|
Play this 3 times

Last time play this:
E 0-0-0-00|000-3-0-|--------|----5-3-0|
A --------|--------|3-3-3-33|5-3------|
D --------|--------|--------|---------|
G --------|--------|--------|---------|
Comments