Cranberries - Put Me Down Chords & Tabs

 

Put Me Down Chords & Tabs

Cranberries Chords & Tabs

Version: 1 Type: Bass Tab 0 ratings
1 star 2 stars 3 stars 4 stars 5 stars
comments

Put Me Down Bass Tab

#----------------------------------PLEASE NOTE---------------------------------#
#This file is the author's own work and represents their interpretation of the #
#song. You may only use this file for private study, scholarship, or research. #
#------------------------------------------------------------------------------#


Song - Put Me Down
Band - Cranberries
Album - Everybody Else is Doing.....

Tabbed by Philip (philipheaven@hotmail.com)

0:00

G: ---------------------------------------------------------------------
D: ---------------------------------------------------------------------
A: 3--3-3--3-3--3-3--3---------------------3--3-3--3-3--3-3--3------7--5
E: --------------------3--3-3--3-3--3-3--3---------------------3--------

0:13

G: --------------------------------------------------------------------
D: --------------------------------------------------------------------
A: 3--3-3--3-3--3-3--3---------------------3--3-3--3-3--3-3--3---------
E: --------------------3--3-3--3-3--3-3--3---------------------3--3-3--

G: --------------------------------------------------------------------
D: --------------------------------------------------------------------
A: ------------3--3-3--3-3--3-3--3---------------------3--3-3--3-3--3-3
E: 3-3--3-3--3---------------------3--3-3--3-3--3-3--3-----------------

G: --------------------------------------------------------------------
D: --------------------------------------------------------------------
A: 3-----------------------------------------7--7-7--7-7--7-7--7-------
E: --3--3-3--3-3--3-3--3-5--5-5--5-5--5-5--5---------------------5--5-5

G: ------------------------
D: -----------------------.
A: -------------7----3--2-.
E: -5-5--5-5--5------------

1:30
[ Tab from: http://www.guitartabs.cc/tabs/c/cranberries/put_me_down_btab.html ]
G: -----------------------------------------------------------------------
D: -----------------------------------------------------------------------
A: 3-3-3-3-3-3-3-3-3-3-3-3-7-7-7-7-7-7-7-7-7-7-7-7------------------------
E: ------------------------------------------------5-5-5-5-5-5-5-5-5-5-5-5

G: ------------------------
D: -----------------------.
A: ------------7-7-7-5-5-5.
E: 5-5-5-5-5-5-------------

1:56

G: --------------------------------------------------------------------
D: --------------------------------------------------------------------
A: 3--3-3--3-3--3-3--3---------------------3--3-3--3-3--3-3--3---------
E: --------------------3--3-3--3-3--3-3--3---------------------3--3-3--

G: --------------------------------------------------------------------
D: --------------------------------------------------------------------
A: ------------3--3-3--3-3--3-3--3---------------------3--3-3--3-3--3-3
E: 3-3--3-3--3---------------------3--3-3--3-3--3-3--3-----------------

G: --------------------------------------------------------------------
D: --------------------------------------------------------------------
A: 3-----------------------------------------7--7-7--7-7--7-7--7-------
E: --3--3-3--3-3--3-3--3-5--5-5--5-5--5-5--5---------------------5--5-5

G: -----------------------
D: -----------------------
A: -------------7----3--2-
E: -5-5--5-5--5-----------

2:34

G: -----------------------------------------------------------------------
D: -----------------------------------------------------------------------
A: 3-3-3-3-3-3-3-3-3-3-3-3-7-7-7-7-7-7-7-7-7-7-7-7------------------------
E: ------------------------------------------------5-5-5-5-5-5-5-5-5-5-5-5

G: ------------------------
D: -----------------------.
A: ------------7-7-7-5-5-5.
E: 5-5-5-5-5-5-------------

Any questions or comments please e-mail me
Enjoy
Comments