Cranberries - Linger Chords & Tabs

 

Linger Chords & Tabs

Cranberries Chords & Tabs

Version: 1 Type: Bass Tab 0 ratings
1 star 2 stars 3 stars 4 stars 5 stars
comments

Linger Bass Tab

Linger - The Cranberrries

  intro
G|------------------------------------------------------|
D|------------------------------------------------------|
A|------------------4--44-4--4--44-4--------------------|
E|6--66-6--6--66-6--------------------4--44-4--4--44-4--|
[ Tab from: http://www.guitartabs.cc/tabs/c/cranberries/linger_btab.html ]
  main riff
G|------------------------------------------------------------------------|
D|------------------------------------------------------------------------|
A|6--66-6--6--66-6--------------------4--44-4--4--44-4--------------------|
E|------------------6--66-6--6--66-6--------------------4--44-4--4--44-4--|

  outro riff        end
G|----------------|-----|
D|--------6--66-6-|8----|
A|6--66-6---------|-----|
E|----------------|-----|

tabbed by Achilles (blue_sincere@hotmail.com)
The Bass Tab Archive Army

Comments