Cranberries - Dreams Chords & Tabs

 

Dreams Chords & Tabs

Cranberries Chords & Tabs

Version: 2 Type: Bass Tab 0 ratings
1 star 2 stars 3 stars 4 stars 5 stars
comments

Dreams Bass Tab

   
Song: "Dreams"
by THE CRANBERRIES
from the album: "Everybody else is doing it, so why can't we?"
written by: Noel Hogan & Dolores O'Riordan
tabbed by: Guido Comparato 

 Intro / Verse / Chorus
G|-----------------------------------------------------------------|
D|-----------------------------------------------------------------|
A|-7-7-7-7-7-7-7-7-7-7-7-7-7-7-7-7-0-0-0-0-0-0-0-0-0-0-0-0-0-0-0-0-|
E|-----------------------------------------------------------------|
[ Tab from: http://www.guitartabs.cc/tabs/c/cranberries/dreams_btab_ver_2.html ]
G|-----------------------------------------------------------------|
D|-----------------------------------------------------------------|
A|-2-2-2-2-2-2-2-2-2-2-2-2-2-2-2-2-7-7-7-7-7-7-7-7-7-7-7-7-7-7-7-7-|
E|-----------------------------------------------------------------|

 Interlude
G|---------------------------------------------------------|
D|---------------------------------------------------------|
A|---------------3--3--3-3-------------------3--3--3-3--5--|
E|-3--3--3-3--5-------------5--3--3--3-3--5----------------|

 Corrections, comments or anything else to comparato@fcmail.com

 Bye bye
Comments