Cranberries - Animal Instinct Chords & Tabs

 

Animal Instinct Chords & Tabs

Cranberries Chords & Tabs

Version: 1 Type: Tab 0 ratings
1 star 2 stars 3 stars 4 stars 5 stars
comments

Animal Instinct Tab

   
#----------------------------------PLEASE 
NOTE---------------------------------#
#This file is the author's own work and represents their interpretation
of 
the #
#song. You may only use this file for private study, scholarship, or 
research. #
#-----------------------------------------------------------------------------
-##

Artist: Cranberries
Song: Animal Instinct
Album: Bury The Hatchet
Tabbed by Andrew Goodwin 
RoonieDrew@aol.com

Verse: Em  Am7  Cadd9  D

Chorus:Same as verse but, guitar2 plays with
light distortion:

E---------0---------0---------0---------0--
B---------0--0-0-0--2---------3--3-3-3--3--
G---------0--2-2-2--0--0-0-0--0--2-2-2--2--
D--2-2-2--2--2-2-2--2--2-2-2--2--0-0-0--0--
A--2-2-2--2--0-0-0--0--3-3-3--3------------
E--0-0-0--0--------------------------------
 PM-----     -----     -----     -----

Riff1:   G?   D  Cadd9  D  Cadd9  D  Cadd9                             
       E--3--
       B--3--
       G--0--           
       D--0--
       A--2--
       E--3--

Guitar1 continues playing verse riff on both solos
Guitar2
Solo after Riff1:
[ Tab from: http://www.guitartabs.cc/tabs/c/cranberries/animal_instinct_tab.html ]
E-------------------------------------------------------
B-------------------------------------------------------
G-------------------------------------------------------
D--9h10-9h10-9-9/10--12-12-10-10-10\9-9h10-9h10-9-9/10--
A-------------------------------------------------------
E-------------------------------------------------------

E---------------------
B---------------------
G---------------------
D---------------------
A--10-10-11-11-11-10--
E---------------------

Guitar2
Solo: repeat solo after riff1 then play:

E---------------------------------------------------------
B---------------------------------------------------------
G---------------------------------------------------------
D--------------------9H10-9H10-9/10/12-12-12/14-14-14-14--
A--10-10-10-12-12-12--------------------------------------
E---------------------------------------------------------

E---------------------------------------------------------
B---------------------------------------------------------
G---------------------------------------------------------
D--14-14-12-12-12-10-10-10-9-9-9--------------------------
A--------------------------------10-10-10-12-12-12-10-10--
E---------------------------------------------------------

E----------------------------------------------------
B----------------------------------------------------
G----------------------------------------------------
D--------------9-9-9---------------------------------
A--10-12-12-12-------12-12-12-10-10-10-12-12-12--10--
E----------------------------------------------------

Order:
verse
chorus 
riff1
solo after riff1
verse 
solo after riff1
solo
Comments