Craigs Brother - My Annie Chords & Tabs

 

My Annie Chords & Tabs

Craigs Brother Chords & Tabs

Version: 1 Type: Tab 0 ratings
1 star 2 stars 3 stars 4 stars 5 stars
comments

My Annie Tab

Author/Artist: Craig's Brother
Title: My Annie
Album: Homecoming
Transcribed by: Matt Kent
Email: mek8283@rit.edu

Credits: SilverZ633@aol.com and some other guy's tab. I used those two to get
a feel for the song. They were primarily in chord format.

Notes: Tune 1/2 step down to Eb. Both guitars are transcribed here, listen to
the song for timing and strumming. For the most part, I've just listed chords
once or twice and you can figure out the rhythm. All parts are listed in
order so you can just play along.

I'd say this tab is 99% correct, there's one part in verse 2 for the second
guitar that I couldn't quite get. Please email any corrections. Enjoy!


--------
Guitar 1
--------

intro (0:00):
eb|---------------------------------------------------------------------------|
Bb|---------------------------------------------------------------------------|
Gb|-11-11---9--9-----11-12-14-------------------------------------------------|
Db|-12-12--12-12--12-12-12-12----x2-------------------------------------------|
Ab|-12-12--12-12--12----------------------------------------------------------|
Eb|-10-10---------------------------------------------------------------------|


verse 1 part a+b (0:09):
eb|---------------------------------------------------------------------------|
Bb|---------------------------------------------------------------------------|
Gb|--------------------------------------16-----------------------------------|
Db|-12--7--9-11-/14----x\-5--7--16h17-19----19-16-17-16-----------------------|
Ab|-12--7--9-11-/11----x\-5--7--------------------------19-17-----------------|
Eb|-10--5--7--9-/12----x\-3--5--------------------------------19-17-----------|


verse 1 part c (0:28):
eb|---------------------------------------------------------------------------|
Bb|---------------------------------------------------------------------------|
Gb|--------------9-7-6-4------------------------------------------------------|
Db|-12--7--9-11-------------5--7----------------------------------------------|
Ab|-12--7--9-11--7-5-4-2----5--7----------------------------------------------|
Eb|-10--5--7--9-------------3--5----------------------------------------------|


verse 1 part d (0:43):
eb|---------------------------------------------------------------------------|
Bb|---------------------------------------------------------------------------|
Gb|----11/14-----------------------11/14--------------------------------------|
Db|-12-------11--12-7-11-11/14--12-------11--12-14-12--11---------------------|
Ab|-12--9/12------------------------9/12--------------------------------------|
Eb|-10--------9--10-5--9--9/12--10--------9--10-12-10---9---------------------|


chorus 1 (0:57):
eb|---------------------------------------------------------------------------|
Bb|---------------------------------------------------------------------------|
Gb|-7-----12-10-9--12-10-9----7--9--------7--9--12---16-14--------------------|
Db|-7--7----------------------7--9--9--5--7--9--12----------------------------|
Ab|-5--7--10--8-7--10--8-7----5--7--9--5--5--7--10---14-12--------------------|
Eb|----5----------------------------7--3--------------------------------------|


repeat intro (1:15):


verse 2 part a (1:25):
eb|---------------------------------------------------------------------------|
Bb|---------------------------------------------------------------------------|
Gb|--------------9-6-6/7------------------5----7---9--------------------------|
Db|-12--7--9-11---------------------4-6-8------5---7--------------------------|
Ab|-12--7--9-11--7-4-4/5--4-6-4-6-8-------------------------------------------|
Eb|-10--5--7--9---------------------------------------------------------------|
                          pm...............

verse 2 part b (1:39):
eb|---------------------------------------------------------------------------|
Bb|---------------------------------------------------------------------------|
Gb|----11/14-----------------------11/14----------------12-11-9--7------------|
Db|-12-------11--12-7-11-11/14--12-------11--12-7-14-12----------7------------|
Ab|-----9/12------------------------9/12----------------10--9-7--5------------|
Eb|-10--------9--10-5--9--9/12--10--------9--10-5-12-10-----------------------|


pause while guitar 2 plays verse 3 part a (1:54):


verse 3 part b (2:03):
eb|---------------------------------------------------------------------------|
Bb|---------------------------------------------------------------------------|
Gb|-7--9--7--9--7----7--9--7--9--11--12---------------------------------------|
Db|---------------------------------------------------------------------------|
Ab|-5--7--5--7--5----5--7--5--7---9--10---------------------------------------|
Eb|---------------------------------------------------------------------------|

[ Tab from: http://www.guitartabs.cc/tabs/c/craigs_brother/my_annie_tab.html ]
verse 3 part c (2:12):
eb|---------------------------------------------------------------------------|
Bb|---------------------------------------------------------------------------|
Gb|-7--9--7-------7--9--7--12-11-9----7--9--7-------7--9--7--12-11-9--7-------|
Db|----------9-7-------------------------------9-7----------------------------|
Ab|-5--7--5-------5--7--5--10--9-7----5--7--5-------5--7--5--10--9-7--5-------|
Eb|----------7-5-------------------------------7-5----------------------------|


repeat chorus (2:33):


outro (2:51):
eb|---------------------------------------------------------------------------|
Bb|------------------------------888------------------------------------------|
Gb|--77-777-777-777--777-777-777-777--777-777-777-777-999-999--11-12--11------|
Db|--77-777-777-777--777-777-777-777--777-777-777-777-777-777--12-12--12---12-|
Ab|-------------------------------------------------------------------12---12-|
Eb|---------------------------------------------------------------------------|


--------
Guitar 2
--------

intro (0:00):
eb|---------------------------------------------------------------------------|
Bb|---------------------------------------------------------------------------|
Gb|-11-11---9--9--12-12--14-14------------------------------------------------|
Db|-12-12--12-12--12-12--12-12----x2------------------------------------------|
Ab|-12-12--12-12--10-10-------------------------------------------------------|
Eb|-10-10---------------------------------------------------------------------|


verse 1 part a+b (0:09):
eb|---------------------------------------------------------------------------|
Bb|---------------------------------------------------------------------------|
Gb|-7-------6-/9-------------7------------------------------------------------|
Db|-7--7--9-6-/6----x\-5--7--7-7-9-5--x\--------------------------------------|
Ab|-5--7--9-4-/7----x\-5--7--5-7-9-5--x\--------------------------------------|
Eb|----5--7---------x\-3--5----5-7-3--x\--------------------------------------|


verse 1 part c+d (0:28):
eb|---------------------------------------------------------------------------|
Bb|---------------------------------------------------------------------------|
Gb|-7-------6-/9-----------7-----------7--------------------------------------|
Db|-7--7--9-6-/6--x\-5--7--7--7--9--5--7--7--9--5--5----7---------------------|
Ab|-5--7--9-4-/7--x\-5--7--5--7--9--5--5--7--9--5--5----7---------------------|
Eb|----5--7-------x\-3--5-----5--7--3-----5--7--3--3----5---------------------|


chorus (0:57):
eb|---------------------------------------------------------------------------|
Bb|---------------------------------------------------------------------------|
Gb|----7-----9-------7--9--------7--9-----------------------------------------|
Db|-x\-7--7--9--5-7--7--9--9--5--7--9--5--------------------------------------|
Ab|-x\-5--7--7--5-7--5--7--9--5--5--7--5--------------------------------------|
Eb|-x\----5-----3-5--------7--3--------3--------------------------------------|


repeat intro (1:15):


verse 2 part a+b (1:25):
eb|---------------------------------------------------------------------------|
Bb|---------------------------------------------------------------------------|
Gb|-7--------6--9-6-6------------7-----------7-----------------7--------------|
Db|-7--7--9--6------6-7----5--7--7--7--9--5--7--7--9--5--5--7--7--------------|
Ab|-5--7--9--4--7-4-4-7----5--7--5--7--9--5--5--7--9--5--5--7--5--------------|
Eb|----5--7-----------5----3--5-----5--7--3-----5--7--3--3--5-----------------|
                      pm..

verse 3 part a+b (1:54):
eb|---------------------------------------------------------------------------|
Bb|---------------------------------------------------------------------------|
Gb|-7----5----7--------------7----5----7--------------------------------------|
Db|-7----5----7----7----5----7----5----7--9--7--5-----------------------------|
Ab|-5----3----5----7----5----5----3----5--9--7--5-----------------------------|
Eb|----------------5----3-----------------7--5--3-----------------------------|
    pm.............................


verse 3 part c (2:12):
eb|---------------------------------------------------------------------------|
Bb|---------------------------------------------------------------------------|
Gb|-7--7--------7--7----------7--7--------7--7---------7----------------------|
Db|-7--7--9--7--7--7--7--7----7--7--9--7--7--7--7--7-9-7----------------------|
Ab|-5--5--9--7--5--5--7--7----5--5--9--7--5--5--7--7-9-5----------------------|
Eb|-------7--5--------5--5----------7--5--------5--5-7------------------------|


repeat chorus (2:33):


outro (2:51):
eb|---------------------------------------------------------------------------|
Bb|---------------------------------------------------------------------------|
Gb|-7---------7------------7--7-----------------------------------------------|
Db|-7----5----7-------5----7--7-----------------------------------------------|
Ab|-5----5----5----5--5----5--5-----------------------------------------------|
Eb|------3---------7--3----5--------------------------------------------------|
Comments