Craig David - Spanish Chords & Tabs

 

Spanish Chords & Tabs

Craig David Chords & Tabs

Version: 2 Type: Tab 0 ratings
1 star 2 stars 3 stars 4 stars 5 stars
comments

Spanish Tab

Artist: Craig David
Song:   Spanish
Album:  Slicker than your average
Tabbed by: g_mac

This is not a totally accurate tab but itís all I can make out.
Itís better than nothing Amigos!!

Intro
-5----5h6p5-5------------------------
-6------------6-5-6-8-6-5ó6-5--------
-7----------------------------7p6----
-7-----------------------------------
-5-----------------------------------
-5-----------------------------------

-5-----------------------------------
-5-----------------------------------
-6--ó-2h3p2-3-2----------------------
-7--------------5p3-5-3-2h3p2--------
-7-----------------------------------
-5-----------------------------------
[ Tab from: http://www.guitartabs.cc/tabs/c/craig_david/spanish_tab_ver_2.html ]
-5----5-4-5-7-8-7-8-10---------------
-6-----------------------------------
-7-----------------------------------
-7-----------------------------------
-5-----------------------------------
-5-----------------------------------

-5-------------------------------------------
-5-------------------------------------------
-6-------------------------------------------
-7-----7h9p7-6ó-5h7p5-4ó3h5p3-2ó2h3p2-4-3p2--
-7-------------------------------------------
-5-------------------------------------------

Then the main riff throughout the song...

----------------------
----------------------
----------------------
------7p5---5-7-8-7---
----------7-----------
----------------------

Thatís about it...
Comments