Craig David - 7 Days Acoustic Chords & Tabs

 

7 Days Acoustic Chords & Tabs

Craig David Chords & Tabs

Version: 1 Type: Tab 0 ratings
1 star 2 stars 3 stars 4 stars 5 stars
comments

7 Days Acoustic Tab

   
Em    h p             Am7  Bm7
E-1---2-3-2-0-2-0-------0----2
B-0---------------3-1-0-1----3
G-0---------------------0----2
D-2---------------------2----4
A-2---------------------0----2
E-0--------------------------2

repeat this^^^^^^^^^^^ throughout the verse and chorus.
Bridge....
break it down, break it down
                   Cadd9
E--0---0---0---------3
B--0---0---0---------3  SINCE I MET THIS SPECIAL LADY
G--0---0---0---------0
D--------------------2
A----------------5---3
E--0---2---3---5h7----

REPEAT ^^^^^^^^^^^^^^^ I CANT GET HER OFF MY MIND...
[ Tab from: http://www.guitartabs.cc/tabs/c/craig_david/7_days_acoustic_tab.html ]
REPEAT ^^^^^^^^^^^^^^^ AGAIN... SHES ONE OF A KIND....
                   Am7   Bm7
E--0---0---0--------0-----2                             
B--0---0---0--------1-----3                              
G--0---0---0--------0-----2
D-------------------2-----4                             
A----------------5--0-----2
E--0---2---3---5h7---------

PAUSE BETWEEN THE AM7 AND THE BM7 AND CRAIG SINGS "ITS A SPECIAL KINDA THING WITH" 
THEN BM7 WHEN HE SAYS "YOUUUUUU" THEN STRAIGHT BACK INTO THE VERSE & CHORUS!!! 
THANX ALOT HOPE U ENJOY, IF U ARE HAVING TROUBLE PLAYING THE SONG THEN U CAN 
DOWNLOAD THE SONG ON MORPHEUS JUST TYPE IN CRAIG DAVID ACOUSTIC.

TABBED BY ANDREW BROWN, IF U HAVE ANY COMMENTS CORRECTIONS EMAIL ME AT 
BROWNSCIDZ8@HOTMAIL.COM OR TALK IF YOUR ON MSN MESSENGER. CHEERS!!
Comments