Cragga - True Chords & Tabs

 

True Chords & Tabs

Cragga Chords & Tabs

Version: 1 Type: Tab 0 ratings
1 star 2 stars 3 stars 4 stars 5 stars
comments

True Tab

   
ARTIST; CRAGGA
SONG; TRUE
WRITTEN BY; CRAIG HUTCHINSON

cappo 5th fret

riff A

e---------0---------------3-2-0----|
b-----3-----3---3-----3----------3-|
g---2---2-----2-----2---2----------|
d-0---------------0----------------|
a----------------------------------|
e----------------------------------|

riff B

e---------0-----------------------|
b-----1-----1--1----------1-------|
g---2---2----2--------0-----0---0-|
d-3-----------------2---2-----2---|
a-----------------3---------------|
e---------------------------------|

verse 1
riff A
[ Tab from: http://www.guitartabs.cc/tabs/c/cragga/true_tab.html ]
NOW I
KNOW WHAT YOU WANTED
I KNOW WHAT YOU NEEDED
IT WAS NOBODY ELSE

FAME WAS
JUST WHAT YOU WANTED
JUST WHAT YOU NEEDED
MORE THAN ANYTHING ELSE

bridge
riff B

STOOD OUTSIDE YOUR HOUSE IN THE BEGGINING
THEN INTO THE WOODS, WHAT DID WE GET UP TO

chorus
riff A

NOW YOUR AT THE TOP, YOU'VE MADE IT AT LAST
BUT DON'T FOGET THAT YOU ONCE HAD A PAST
I CALLED YOUR NAME 'TIL MY FACE WAS BLUE
I'D NEVER LIE AND YOU KNOW THAT ITS TRUE

verse 2

WHEN I
LAST SAW YOUR PICTURE
YOU LOOKED SO DIFFERENT
TO WHAT YOU DID BEFORE

bridge 2

NOW YOUR A STAR AND I'M STILL OUTSIDE YOUR HOUSE
WILL I SEE YOU AGAIN WITH MY OWN EYES

chorus

riff A outro
Comments