Cragga - Jizz Music Chords & Tabs

 

Jizz Music Chords & Tabs

Cragga Chords & Tabs

Version: 1 Type: Tab 0 ratings
1 star 2 stars 3 stars 4 stars 5 stars
comments

Jizz Music Tab

   
SONG; JIZZ MUSIC
ARTIST; CRAGGA
WRITTEN BY; CRAIG HUTCHINSON

verse

 D               Dm
e---5----7-5---5---5---6-5----5-|
b-7----7-----7---6---6-----6----|
g-------------------------------|
d-------------------------------|
a-------------------------------|
e-------------------------------|

I LIVE IN THE DISTANCE
ITS SO FAR AWAY
BUT I TRY TO GET NEER
'COS I SEE YOUR VIRTUES
BUT YOU SEE MY SINS
AND YOU MAKE IT SO SINCERE

bridge
[ Tab from: http://www.guitartabs.cc/tabs/c/cragga/jizz_music_tab.html ]
 A                     D        E
e-----------------------------------------|
b-----------------------------------------|
g-----------------------7----7----9-----9-|
d---7----7----7----7----------------------|
a---------------------5----5----7----7----|
g-5----5----5----5------------------------|

I WANNA GO BACK TO THE SIXTIES
GET HIGH FROM TEA
DON'T WANNA BE THINKING QUICKLY
I WANNA BE MR T

chorus


ILL GET OUT OF MY HOUSE AND INTO THE COLD
COS I DONT BELONG HERE
YOU CAN KEEP MY THINGS BUT NOT MY LIFE
IM ESCAPING MY CAREER

verse 2

LOOK AT THIS SHIT TIP
THAT I CALL HOME
YOU NEVER COME TO SEE IT
I TRY TO DRIVE MY CAR
STREIGHT FROM THE CLUB
I CANT SEE BUT YOU ALWAYS BEET IT

bridge
chorus
verse 3

WHAT ARE YOU SAYING
I CANNOT TELL
BUT YOU DONT UNDERSTAND ME
THE PRESSURES TOO HEAVEY
THAT NO ONE CAN COPE
HOW DID I DO IT BEFORE

bridge
chorus
Comments