Cradle Of Thorns - Picture Perfect Chords & Tabs

 

Picture Perfect Chords & Tabs

Cradle Of Thorns Chords & Tabs

Version: 1 Type: Bass Tab 0 ratings
1 star 2 stars 3 stars 4 stars 5 stars
comments

Picture Perfect Bass Tab

PICTURE PERFECT
By: Cradle of Thorns
Tabbed by: Chris Wurth
Standard Tuning

Intro:
G|-----------------------|
D|-----------------------|
A|-----------------------|
E|--0---0-0-0---0---0-0-0|*------------Repeat As Many Times As Needed*

Verse: 1st Part
G|--------------------------------------------------------|
D|--------------------------------------------------------|
A|--------------------------------------------------------|
E|--0-0-0-0-0----0-0-0-0-0----0-0-0-0-0----5-5-5-5-3-3-3-3|
[ Tab from: http://www.guitartabs.cc/tabs/c/cradle_of_thorns/picture_perfect_btab.html ]
Verse: 2nd Part
G|--------------------------------------------------------|
D|--------------------------------------------------------|
A|--------------------------------------------------------|
E|--1-1-1-1-1----1-1-1-1-1----1-1-1-1-1----5-5-5-5-3-3-3-3|

Chorus:
G|--------------------|x2|--------------------|
D|--------------------|x2|--------------------|
A|--------------------|x2|--------------------|
E|--5-0-5--0-5--0-0-5-|x2|--3-0-3--0-3--0-0-3-|

Bridge: 1st
G|---------------------------------------------------|
D|---------------------------------------------------|
A|--5-5-5-5-5-5-5-5-5-5-5-5--6-6-6-6-6-6-6-6-6-6-6-6-|
E|---------------------------------------------------|



Any questions or comments, mail to Embryo_99@hotmail.com
Comments