Cradle Of Filth - Scorched Earth Erotica Chords & Tabs

 

Scorched Earth Erotica Chords & Tabs

Cradle Of Filth Chords & Tabs

Version: 3 Type: Tab 0 ratings
1 star 2 stars 3 stars 4 stars 5 stars
comments

Scorched Earth Erotica Tab

   
Tunning D G C F A D

d----------------------------|--------------------------------------|
A----------------------------|--------------------------------------|
F---------------7------------|----------6---------------------------|
C--------9-------------9-----|------8---------8---------------------|
G------9---9------9------9---|----8---8---8-----8-------------------|
D-7-10-------10-----10-----10|6-9-----------9-----9-----------------|

d-------------------------------------------------------------------|
A-------------------------------------------------------------------|
F-------------------13----------------------------------------------|
C----------15----------------15-------------------------------------|
G-------15----15-------15-------15----------------------------------|
D-13-16----------16-------16-------16-------------------------------|

d-------------------------------------------------------------------|
A-------------------------------------------------------------------|
F-------------------12----------------------------------------------|
C----------14----------------14-------------------------------------|
G-------14----14-------14-------14----------------------------------|
D-12-15----------15-------15-------15-------------------------------|

d----------------------------|--------------------------------------|
A----------------------------|--------------------------------------|
F---------------7------------|----------6---------------------------|
C--------9-------------9-----|------8---------8---------------------|
G------9---9------9------9---|----8---8---8-----8-------------------|
D-7-10-------10-----10-----10|6-9-----------9-----9-----------------|

d-------------------------------------------------------------------|
A-------------------------------------------------------------------|
F-------------------13----------------------------------------------|
C----------15----------------15-------------------------------------|
G-------15----15-------15-------15----------------------------------|
D-13-16----------16-------16-------16-------------------------------|

d-------------------------------------------------------------------|
A-------------------------------------------------------------------|
F-------------------12----------------------------------------------|
C----------14----------------14-------------------------------------|
G-------14----14-------14-------14----------------------------------|
D-12-15----------15-------15-------15-------------------------------|

d-------------------------------------------------------------------|
A-------------------------------------------------------------------|
F-------------------------------------------------------------------|
C----------16----------------16-------------------------------------|
G-14-16-17----17-16-14-16-17----17-16-------------------------------|
D-------------------------------------------------------------------|

d-------------------------------------------------------------------|
A-------------------------------------------------------------------|
F-------------------------------------------------------------------|
C----------15----------------15-------------------------------------|
G-13-15-16----16-15-13-15-16----16-15-------------------------------|
D-------------------------------------------------------------------|

d-------------------------------------------------------------------|
A-------------------------------------------------------------------|
F----------17----------------17-------------------------------------|
C-15-17-18----18-17-15-17-18----18-17-------------------------------|
G-------------------------------------------------------------------|
D-------------------------------------------------------------------|
[ Tab from: http://www.guitartabs.cc/tabs/c/cradle_of_filth/scorched_earth_erotica_tab_ver_3.html ]
d-------------------------------------------------------------------|
A-------------------------------------------------------------------|
F----------16----------------16-------------------------------------|
C-14-16-17----17-16-14-16-17----17-16-------------------------------|
G-------------------------------------------------------------------|
D-------------------------------------------------------------------|

d-------------------------------------------------------------------|
A-------------------------------------------------------------------|
F-------------------------------------------------------------------|
C----------16----------------16-------------------------------------|
G-14-16-17----17-16-14-16-17----17-16-------------------------------|
D-------------------------------------------------------------------|

d-------------------------------------------------------------------|
A-------------------------------------------------------------------|
F-------------------------------------------------------------------|
C----------15----------------15-------------------------------------|
G-13-15-16----16-15-13-15-16----16-15-------------------------------|
D-------------------------------------------------------------------|

d-------------------------------------------------------------------|
A-------------------------------------------------------------------|
F----------17----------------17-------------------------------------|
C-15-17-18----18-17-15-17-18----18-17-------------------------------|
G-------------------------------------------------------------------|
D-------------------------------------------------------------------|

d-------------------------------------------------------------------|
A-------------------------------------------------------------------|
F----------16----------------16-------------------------------------|
C-14-16-17----17-16-14-16-17----17-16-------------------------------|
G-------------------------------------------------------------------|
D-------------------------------------------------------------------|

d------------------------------|------------------------------------|
A------------------------------|------------------------------------|
F-----------------7------------|---------------6--------------------|
C----------9-------------9-----|---------8-----------8--------------|
G--------9---9------9------9---|-------8---8-----8-----8------------|
D-4/7-10-------10-----10-----10|-3/6-9-------9-----9-----9----------|

d-------------------------------------------------------------------|
A-------------------------------------------------------------------|
F----------------------13-------------------------------------------|
C-------------15----------------15----------------------------------|
G----------15----15-------15-------15-------------------------------|
D-10/13-16----------16-------16-------16----------------------------|

d-------------------------------------------------------------------|
A-------------------------------------------------------------------|
F---------------------12--------------------------------------------|
C------------14----------------14-----------------------------------|
G---------14----14-------14-------14--------------------------------|
D-9/12-15----------15-------14-------14-----------------------------|

d------------------------------|------------------------------------|
A------------------------------|------------------------------------|
F-----------------7------------|---------------6--------------------|
C----------9-------------9-----|---------8-----------8--------------|
G--------9---9------9------9---|-------8---8-----8-----8------------|
D-4/7-10-------10-----10-----10|-3/6-9-------9-----9-----9----------|

d-------------------------------------------------------------------|
A-------------------------------------------------------------------|
F----------------------13-------------------------------------------|
C-------------15----------------15----------------------------------|
G----------15----15-------15-------15-------------------------------|
D-10/13-16----------16-------16-------16----------------------------|

d-------------------------------------------------------------------|
A-------------------------------------------------------------------|
F-------------------------------------------------------------------|
C-------------------------------------------------------------------|
G-------------------------------------------------------------------|
D-p-i-c-k-s-l-i-d-e-------------------------------------------------|
Comments