Cradle Of Filth - Scorched Earth Erotica Chords & Tabs

 

Scorched Earth Erotica Chords & Tabs

Cradle Of Filth Chords & Tabs

Version: 2 Type: Tab 0 ratings
1 star 2 stars 3 stars 4 stars 5 stars
comments

Scorched Earth Erotica Tab

Cradle of Filth - Scorched Earth Erotica
Track 10 from the album "Bitter Suites to Succubi"
Tabbed by Ken Hoffmeyer (TheOldMansChild@aol.com)

Okay guys, this is just to let you all know that there IS somebody out here
workin on this song!  It's VERY VERY incomplete, but I intend to tab out
both guitar parts for the entire song.  I will finish this as soon as possible
and upload the completed version when I'm done.  Gian's parts (the rhythm guitar) will be VERY hard to tab because they are hard to hear and are usually very quiet (The Intro comes to mind).  Also, some of Paul's parts may be more
complicated than what I have written based on watching the video, although
I personally don't hear anything else.  I'll have a friend listen and try
to figure it out.

Tuning:  Everything down 1 whole step

Intro Part A (0:00-0:14)
 Both guitars
|------------|
|------------|
|------------|
|------------|
|-9/10p9~----|
|------------|

Intro Part B (0:14-0:26)
 Paul (Gtr.1 continued from Part A)
|----------------------------|
|----------------------------|
|----------------------------|
|----------------------------|
|-(9~)-----------------------|
|----------------------------|
|
|Gian (Gtr.2)                         
|----------------------------|
|----------------------------|
|-4-44------------------5555-|
|-4-44--5-55--2-22--55555555-|   Probably wrong
|-2-22--5-55--2-22--55553333-|
|-------3-33--0-00--3333-----|

Riff A 2x (0:26-0:38) 
 Paul (Gtr.1)
|-----------------------|
|-----------------------|
|-----------------------|
|-4--24-5--42-7--54-5---|
|-----------------------|
|-----------------------|
|
|Gian (Gtr.2)                         
|-----------------------|
|-----------------------|
|-----------------------|
|--STILL TO COME--------|
|-----------------------|
|-----------------------|

Riff B 2x (0:38-0:49)
 Paul (Gtr.1)
|-----------------------|
|-----------------------|
|-----------------------|
|-----------------------|
|-4--24-5--42-7--54-5---|
|-----------------------|
|
|Gian (Gtr.2)                         
|-----------------------|
|-----------------------|
|-----------------------|
|--STILL TO COME--------|
|-----------------------|
|-----------------------|

Riff A 2x (0:49-1:00)

Riff C 2x (1:00-1:24)
 Paul (Gtr.1)
|-----------------------|
|-----------------------|
|-----------------------|
|-2-3-2-----------------|
|-2-3-2--STILL TO COME--|
|-0-1-0-----------------|
|
|Gian (Gtr.2)                         
|-----------------------|
|-----------------------|
|-----------------------|
|-2-3-2-----------------|
|-2-3-2--STILL TO COME--|
|-0-1-0-----------------|

Riff A 2x (1:24-1:35)

Riff B 2x (1:35-1:47)

Riff C 2x (1:47-2:10)
[ Tab from: http://www.guitartabs.cc/tabs/c/cradle_of_filth/scorched_earth_erotica_tab_ver_2.html ]
Riff D 2x (2:10-2:22)
 Paul (Gtr.1)
|-----------------------------|--------------------------|
|-----------------------------|--------------------------|
|-----------------------------|--------------------------|  Make sure each note
|--------9------12-9---9------|-------8-----11-8---8-----|  is fingered, don't
|------9---9---------9---9----|-----8---8--------8---8---|  bar fingers across
|-7-10-------10------------10-|-6-9-------9------------9-|  multiple strings.
|
|Gian (Gtr.2)                                             
|-----------------------------|--------------------------|
|-----------------------------|--------------------------|
|-----------------------------|--------------------------|
|-9---------------------------|-8------------------------|
|-9---------------------------|-8------------------------|
|-7---------------------------|-6------------------------|

 Paul (Gtr.1)
|------------------------------------|-----------------------------|
|------------------------------------|-----------------------------|
|---------10-------13-10----10-------|--------9------12-9---9------|
|------10----10----------10----10----|------9---9---------9---9----|
|-8-11----------11----------------11-|-7-10-------10------------10-|
|------------------------------------|-----------------------------|
|
|Gian (Gtr.2)                         
|------------------------------------|-----------------------------|
|------------------------------------|-----------------------------|
|-10---------------------------------|-9---------------------------|
|-10---------------------------------|-9---------------------------|
|-8----------------------------------|-7---------------------------|
|------------------------------------|-----------------------------|

Riff E 2x (2:22-2:34)
 Paul (Gtr.1)
|-----------------------------------|-----------------------------------|
|-----------------------------------|-----------------------------------|
|---------11---------------11-------|---------10---------------10-------|
|-9-11-12----12-11-9-11-12----12-11-|-8-10-11----11-10-8-10-11----11-10-|
|-----------------------------------|-----------------------------------|
|-----------------------------------|-----------------------------------|
|
|Gian (Gtr.2)
|-----------------------------------|-----------------------------------|
|-----------------------------------|-----------------------------------|
|-----------------------------------|-----------------------------------|
|-----------------------------------|-----------------------------------|
|-STILL TO COME---------------------|-----------------------------------|
|-----------------------------------|-----------------------------------|

 Paul (Gtr.1)
|-------------------------------------|----------------------------------|
|-------------------------------------|----------------------------------|
|----------17----------------17-------|----------16-------------17-------|
|-15-17-18----18-17-15-17-18----18-17-|-14-16-17----17-16-14-16----17-16-|
|-------------------------------------|----------------------------------|
|-------------------------------------|----------------------------------|
|
|Gian (Gtr. 2)
|-------------------------------------|----------------------------------|
|-------------------------------------|----------------------------------|
|-------------------------------------|----------------------------------|
|-------------------------------------|----------------------------------|
|-STILL TO COME-----------------------|----------------------------------|
|-------------------------------------|----------------------------------|

Riff D 1.75x (2:34-2:43)

Pick Scrape (2:43-2:45)
 Paul (Gtr.1)
|------|
|------|
|------|
|-X\---|
|-X\---|
|------|
|                    In the video, Paul is shown, open strings, pick goes from 
|Gian (Gtr.2)        high frets to low, and hits mostly the D string
|------|
|------|
|------|
|--X\--|
|--X\--|
|------|

Okay, enough for now...the rest will come in time and I will fill in all
those damn holes in Gian's parts!  It's just too far in the background!
Comments