Cradle Of Filth - Nymphetamine Chords & Tabs

 

Nymphetamine Chords & Tabs

Cradle Of Filth Chords & Tabs

Version: 8 Type: Tab 0 ratings
1 star 2 stars 3 stars 4 stars 5 stars
comments

Nymphetamine Tab

   
Cradle Of Filth
Nymphetamine Overdose
Nymphetamine - 2004

Tuning: Drop D: D A D G B e

Key

sb - slight bend
x - mute
. - Palm Mute



e|--------------------|--|-----------------------------------|--||
B|--------------------|--|-----------------------------------|--||
G|--------------------|O-|-------0-------0-------0-------0---|-O|| x4
D|--------------------|O-|-----4-------4-------4-------4-----|-O|| x4
A|-2-2-2-2/3-3-3------|--|---4-------4-------4-------4-------|--||
E|---------------7sb--|--|-4-------5-------4-------2---------|--||

e|-----||   
B|-----||
G|-----||
D|-----||
A|-0---||
E|-0---||   


e|--------------------------|
B|--------------------------|
G|--------------------------|
D|--------------------------|
A|-4-6-7-7-6-7-6-2sb--------|
E|--------------------------|
[ Tab from: http://www.guitartabs.cc/tabs/c/cradle_of_filth/nymphetamine_tab_ver_8.html ]
Riff 1                                    End Riff 1
e|-------------------------------------------------|
B|-------------------------------------------------|
G|-------------------------------------------------| x5
D|-----2----------4----------2---------------------| x5
A|-0-0-0-1-1--0-0-2-1-1--0-0-0-1-1--4-7-6-2-7-6-2--|
E|-0-0---1-1--0-0---1-1--0-0---1-1-----------------|
   . .        . .        . .
                                         
Riff 2                                                 End Riff 2
e|-------------------------------------|-------------------------|
B|-------------------------------------|-------------------------|
G|-99999999999-88888888888-------------|-------------------------| x3
D|-------------------------99999999999-|-------------------------| x3
A|-------------------------------------|-0-0-0-0-0-0-0-0-0-0-0-0-|
E|-------------------------------------|-0-0-0-0-0-0-0-0-0-0-0-0-|
                                         . . . . . . . . . . . .

e|----------------------------------------------|
B|----------------------------------------------|
G|-99999999999-88888888888----------------------|
D|-------------------------99999999999----------|
A|----------------------------------------------|
E|----------------------------------------------|

Play Riff 1 x5


e|------------|
B|------------|
G|------------|
D|------------|
A|-0----------|
E|-0----------|
   .

Pick Slide / \ / \ / \ / \


Play Both Lines Three Times
Riff 3
e|----------------------------------|
B|----------------------------------|
G|----------------------------------|
D|----------------------------------|
A|-0-3-2-0-2-3-2-0-2-3---3-1-0------|
E|-0-3-2-0-2-3-2-0-2-3---3-0-0------|
   . . . . . . . . . .   . . .

e|-----------------------------------------------|
B|-----------------------------------------------|
G|--------------------101010101010101010101010---|
D|-----------------------------------------------|
A|--3-2-0-2-3-2-0-2-3----------------------------|
E|--3-2-0-2-3-2-0-2-3----------------------------|
    . . . . . . . . .

e|------------------------------------|
B|------------------------------------|
G|------------------------------------|
D|------------------------------------|
A|-0-3-2-0-2-3-2-0-2-3---3-1-0--------|
E|-0-3-2-0-2-3-2-0-2-3---3-0-0--------|
   . . . . . . . . . .   . . .


I Am Stuck At This One Part So
I Will Have The Rest Finished Soon
Comments