Cradle Of Filth - Nymphetamine Chords & Tabs

 

Nymphetamine Chords & Tabs

Cradle Of Filth Chords & Tabs

Version: 6 Type: Tab 0 ratings
1 star 2 stars 3 stars 4 stars 5 stars
comments

Nymphetamine Tab

   
Tabbed By:Luke Harrison

Hello, Everyone. This is my first tab here, but I believe it to be very accurate, if not
perfect. I have played this along with the whole song many times and it sounds great.

Tuning: 
Standard [E,A,D,G,B,E]

Played on a First Act guitar using V-Amp 2 for effects.

Effects: 
Rythm Guitar-Amp:Rectified Head, Chorus and Delay on full gain, .5 on the effects.
Lead Guitar-Amp:Rectified Head, Chorus, Compressor, and Delay on full gain, .5 on the
effects, very slight Delay.

(*)=let ring  \=slide down   /=slide up    pm..=palm mute

Intro:
E|--------------------------|
B|--------------------------|
G|--------------------------|
D|-----------6-\3-----------|
A|-3----6----6-\3----3(*)---|
E|-3----6----4-\1----3(*)---|{4x's}{& throghout prechorus}

PreChorus:
E|-------------------------------|-------------------------------|
B|-------------------------------|-------------------------------|
G|-12-10-12----12-10-12-10-12----|-12-10-12----12-10-12-10-12----|
D|----------10----------------10-|----------13----------------13-|
A|-------------------------------|-------------------------------|
E|-------------------------------|-------------------------------|

E|-------------------------------|-------------------------------|
B|-------------------------------|-------------------------------|
G|-12-10-12----12-10-12-10-12----|-12-10-12----12-10-12-10-12----|
D|----------11----------------11-|----------10----------------10-|
A|-------------------------------|-------------------------------|
E|-------------------------------|-------------------------------|{2x's}

Chorus:
E|-----------------------------------------------------|
B|-----------------------------------------------------|
G|-----------------------------------------------------|
D|-5-5-5-5-5-5--3-3-3-3-3-3--5-5-5-5-5-5---------------|
A|-5-5-5-5-5-5--3-3-3-3-3-3--5-5-5-5-5-5--6-6-6-6-6-6--|
E|-3-3-3-3-3-3--1-1-1-1-1-1--3-3-3-3-3-3--6-6-6-6-6-6--|
   pm...........pm...........pm...........pm...........
E|-----------------------------------------------------|
B|-----------------------------------------------------|
G|-----------------------------------------------------|
D|-5-5-5-5-5-5--3-3-3-3-3-3---------------3-3-3-3-3-3--|
A|-5-5-5-5-5-5--3-3-3-3-3-3--6-6-6-6-6-6--3-3-3-3-3-3--|
E|-3-3-3-3-3-3--1-1-1-1-1-1--6-6-6-6-6-6--1-1-1-1-1-1--|{2x's}{& throughout interlude}
   pm...........pm...........pm...........pm...........

Interlude:
E|---------------------------------------------------------|
B|-------8-9-8-9-8---8-9-8-9-8--6-11-13-11-13-11-13--4-6/8-|
G|-3-5-5-----------8---------------------------------------|
D|---------------------------------------------------------|
A|---------------------------------------------------------|
E|---------------------------------------------------------|
[ Tab from: http://www.guitartabs.cc/tabs/c/cradle_of_filth/nymphetamine_tab_ver_6.html ]
Interlude 2:
E|------------------------------------------------------------|
B|--------------------------------------8-9-8--9-8-9--6-4-6/8-|
G|-3-5-5--7-8-7--8-7-5--8-10-8--10-8-7------------------------|
D|------------------------------------------------------------|
A|------------------------------------------------------------|
E|------------------------------------------------------------|{2x's}

Post Interlude:
E|------|
B|------|
G|-8-8--|
D|-8-8--|
A|-6-6--|
E|------|

Break:
E|---------|
B|---------|
G|---------|
D|---------|
A|-5-4-1-2-|
E|-5-4-1-2-|{4x's}

PreInterlude:
E|---------------------------|
B|---------------------------|
G|-12--10--12--13--12--10--8-|
D|---------------------------|
A|---------------------------|
E|---------------------------|

PreChorus:
E|-------------------------------|-------------------------------|
B|-------------------------------|-------------------------------|
G|-12-10-12----12-10-12-10-12----|-12-10-12----12-10-12-10-12----|
D|----------10----------------10-|----------13----------------13-|
A|-------------------------------|-------------------------------|
E|-------------------------------|-------------------------------|

E|-------------------------------|-------------------------------|
B|-------------------------------|-------------------------------|
G|-12-10-12----12-10-12-10-12----|-12-10-12----12-10-12-10-12----|
D|----------11----------------11-|----------10----------------10-|
A|-------------------------------|-------------------------------|
E|-------------------------------|-------------------------------|{2x's}

Chorus:
E|-----------------------------------------------------|
B|-----------------------------------------------------|
G|-----------------------------------------------------|
D|-5-5-5-5-5-5--3-3-3-3-3-3--5-5-5-5-5-5---------------|
A|-5-5-5-5-5-5--3-3-3-3-3-3--5-5-5-5-5-5--6-6-6-6-6-6--|
E|-3-3-3-3-3-3--1-1-1-1-1-1--3-3-3-3-3-3--6-6-6-6-6-6--|
   pm...........pm...........pm...........pm...........
E|-----------------------------------------------------|
B|-----------------------------------------------------|
G|-----------------------------------------------------|
D|-5-5-5-5-5-5--3-3-3-3-3-3---------------3-3-3-3-3-3--|
A|-5-5-5-5-5-5--3-3-3-3-3-3--6-6-6-6-6-6--3-3-3-3-3-3--|
E|-3-3-3-3-3-3--1-1-1-1-1-1--6-6-6-6-6-6--1-1-1-1-1-1--|{2x's}{& throughout interlude}
   pm...........pm...........pm...........pm...........

Interlude:
E|---------------------------------------------------------|
B|-------8-9-8-9-8---8-9-8-9-8--6-11-13-11-13-11-13--4-6/8-|
G|-3-5-5-----------8---------------------------------------|
D|---------------------------------------------------------|
A|---------------------------------------------------------|
E|---------------------------------------------------------|

Interlude 2:
E|------------------------------------------------------------|
B|--------------------------------------8-9-8--9-8-9--6-4-6/8-|
G|-3-5-5--7-8-7--8-7-5--8-10-8--10-8-7------------------------|
D|------------------------------------------------------------|
A|------------------------------------------------------------|
E|------------------------------------------------------------|{4x's}

Post Interlude:
E|------|
B|------|
G|-8-8--|
D|-8-8--|
A|-6-6--|
E|------|

Break:
E|---------|
B|---------|
G|---------|
D|---------|
A|-5-4-1-2-|
E|-5-4-1-2-|{4x's}

E|------|
B|------|
G|-8-(*)|
D|-8-(*)|
A|-6-(*)|
E|------|

Hope you enjoy the tabs! Any Questions or comments, Email me at winterdressedinblack@hotmail.com
Comments