Cradle Of Filth - Nymphetamine Chords & Tabs

 

Nymphetamine Chords & Tabs

Cradle Of Filth Chords & Tabs

Version: 11 Type: Tab 0 ratings
1 star 2 stars 3 stars 4 stars 5 stars
comments

Nymphetamine Tab

   
First tab...here we go! (This sounds cool!)

Okie dokie..tuning: C F Bb Eb G C

Key: . = palm muting
     p = pull-off
     / = slide     
     & = pause 

Tab:
  
INTRO:
 Guitar I and II:

Guitar I does it 6x and Guitar II does it 4x (0:11)
|-----------------------|
|-----------------------|
|------5--2-------------|
|2--5--5--2--2----------|
|2-&5-&3-&0-&2----------|
|0--3--------0----------|

Guitar II: 2x (0:58) (Guitar I still plays riff above) 
|-----------------------------------------------------------|
|8-7-8-5-8-7-8-7-8-5-8-7-8-7-8--8-7-8-7-8--8-7--------------|
|-----------------------------7----------7------------------|
|-----------------------------------------------------------|
|-----------------------------------------------------------|
|-----------------------------------------------------------|
Continues from above ^                 v-thats a ten...not a one, zero
|-----------------------------------------------------------|
|8-7-8--8-7-8-7-8--8-7-8-7-8-8-7-8-7-8-10-8-7---------------|
|-----5----------5----------4-------------------------------|
|-----------------------------------------------------------|
|-----------------------------------------------------------|
|-----------------------------------------------------------|
[ Tab from: http://www.guitartabs.cc/tabs/c/cradle_of_filth/nymphetamine_tab_ver_11.html ]
Guitar I and II: 1x (1:22)
|-----------------------------------------------------------|
|-----------------------------------------------------------|
|4-4-4-4-4-4-2-2-2-2-2-2-4-4-4-4-4-4------------------------|
|4-4-4-4-4-4-2-2-2-2-2-2-4-4-4-4-4-4-5-5-5-5-5-5------------|
|2-2-2-2-2-2-0-0-0-0-0-0-2-2-2-2-2-2-5-5-5-5-5-5------------|
|------------------------------------3-3-3-3-3-3------------|
 . . . . . . . . . . . . . . . . . . . . . . . . . . . . . .
Continues from above ^
|-----------------------------------------------------------|
|-----------------------------------------------------------|
|4-4-4-4-4-4-2-2-2-2-2-2------------------------------------|
|4-4-4-4-4-4-2-2-2-2-2-2-5-5-5-5-5-5-2-2-2-2-2-2------------|
|2-2-2-2-2-2-0-0-0-0-0-0-5-5-5-5-5-5-2-2-2-2-2-2------------|
|------------------------3-3-3-3-3-3-0-0-0-0-0-0------------|
 . . . . . . . . . . . . . . . . . . . . . . . . . . . . . .
Continues from above ^
|-----------------------------------------------------------|
|-----------------------------------------------------------|
|4-4-4-4-4-4-2-2-2-2-2-2-4-4-4-4-4-4------------------------|
|4-4-4-4-4-4-2-2-2-2-2-2-4-4-4-4-4-4-5-5-5-5-5-5------------|
|2-2-2-2-2-2-0-0-0-0-0-0-2-2-2-2-2-2-5-5-5-5-5-5------------|
|------------------------------------3-3-3-3-3-3------------|
 . . . . . . . . . . . . . . . . . . . . . . . . . . . . . .
Guess What..? It continues from above, yet again ^
|-----------------------------------------------------------|
|-----------------------------------------------------------|
|4-4-4-4-4-4-2-2-2-2-2-2------------------------------------|
|4-4-4-4-4-4-2-2-2-2-2-2-5-5-5-5-5-5-2-2-2-2-2-2------------|
|2-2-2-2-2-2-0-0-0-0-0-0-5-5-5-5-5-5-2-2-2-2-2-2------------|
|------------------------3-3-3-3-3-3-0-0-0-0-0-0------------|
 . . . . . . . . . . . . . . . . . . . . . . . . . . . . . .

Guitar I and II: 2x (1:45)             v-----v(two more tens)
|-------------------------------------------------------------|
|-------------------------------------------------------------|
|-------------------------------------------------------------|
|0-2-2-4-5-4-5p4-2--4/5-7-5--7p5-4-8/9-10-9-10p9-7-9p7p5-7-9--|
|-------------------------------------------------------------|
|-------------------------------------------------------------|
Then Guitar II does this riff once at 1:57
|-------------------------------------------------------------|
|3-5-5-7-8-7-8p7-5-7/8-10-8-10p8-11/12-13-12-13p12-11---------|
|-------------------------------------------------------------|
|-------------------------------------------------------------|
|-------------------------------------------------------------|
|-------------------------------------------------------------|
And the riff above ends with:
|-----------------|
|12p10p8-10-12----|
|-----------------|
|-----------------|
|-----------------|
|-----------------|

Next up, Guitar I and II: 1x (2:08)
|-------------------------------------------------------------|
|-------------------------------------------------------------|
|-------------------------------------------------------------|
|77------11-10-7-8----------2---------------------------------|
|55------9--8--5-6----------2---------------------------------|
|55------9--8--5-6----------0---------------------------------|
 ^^      ^^^^^^^^^          ^
 1x         4x              1x

Guitar I: 2x (2:43)(After Rest)
|-----------------------------------------------------------|
|8-7-8-5-8-7-8-7-8-5-8-7-8-7-8--8-7-8-7-8--8-7--------------|
|-----------------------------7----------7------------------|
|-----------------------------------------------------------|
|-----------------------------------------------------------|
|-----------------------------------------------------------|
Continues from above ^                 v-thats a ten...not a one, zero
|-----------------------------------------------------------|
|8-7-8--8-7-8-7-8--8-7-8-7-8-8-7-8-7-8-10-8-7---------------|
|-----5----------5----------4-------------------------------|
|-----------------------------------------------------------|
|-----------------------------------------------------------|
|-----------------------------------------------------------|

Guitar I: Play Second Riff (2x)(3:08)
          Play Third Riff (4x) (3:31)
          Play Fourth Riff (1x) (4:19)

And That's all folks...
umm...do me a favor...
RATE IT!!

Thanx Bitches ,,/,, ^.< ,,\,,
Comments