Cradle Of Filth - Nymphetamine Chords & Tabs

 

Nymphetamine Chords & Tabs

Cradle Of Filth Chords & Tabs

Version: 10 Type: Tab 0 ratings
1 star 2 stars 3 stars 4 stars 5 stars
comments

Nymphetamine Tab

|-------------------------------------------------------|
|-------------------------------------------------------|
|-------------------------------------------------------|
|-------------------------------------------------------|
|--7-7-7-7-8-8-8-4----5---5---5---5---0---0---0---0-----|
|--------------------5---5---6---6---5---5---3---3------|  x4
 (bend string on 4)
|------------------------------------|
|------------------------------------|
|------------------------------------|
|---4-------------5-8-7-5-7-5--------|
|---4-hold---------------------8-----|
|---2--------------------------------|


|--------------------------------------------------|
|--------------------------------------------------|
|--------------------------------------------------|
|-----4---6/5---2---8/7---4---6/5---5-8-7-5-7-5----|
|-----4---6/5---2---8/7---4---6/5--------------8---|
|---2-2-0-4/3-2-2-0-6/5-2-2-0-4/3------------------|  (repeated many times)
pm  .   .     .   .     .   .                          (Bend String on 8)

  
|------------------------------------------|
|------------------------------------------|
|------------------------------------------|
|------------------------------------------|
|--99999999-88888888-55555555--------------|
|--99999999-88888888-55555555-22233222233--| x4
 (Alternate way on 3rd Time          3333333333)


|---------------------------------------------------------|
|---------------------------------------------------------|
|--------------------------------------------7777-2222----|
|---4-------------8--8--5---4------------8----------------|
|---4-------------8--8--5---4------------8----------------|
|---2--5432-5422--6--6--3---2-5432-5422--6----------------| (repeated 4x)
pm          .... ....                                .... ....




|-----------------------------|
|-----------------------------|
|-----------------------------|
|---2---5----10---/7---5--2---|
|---2---5----10---/7---5--2---|
|---0---3----8----/5---0--0---| (play slow)
[ Tab from: http://www.guitartabs.cc/tabs/c/cradle_of_filth/nymphetamine_tab_ver_10.html ]
|--------------------------------------------------------------|
|---8-7-8-5-8-7-8-7-8-5-8-7-8-7-8---8-7-8-7-8---8-7-8-7-8------|
|---------------------------------7-----------7-----------5----|
|--------------------------------------------------------------|
|--------------------------------------------------------------|
|--------------------------------------------------------------| picking 1

|----------------------------------------------|
|--8-7-8-7-8---8-7-8-7-8---8-7-8-10-8-7-8-5----|
|------------5-----------4---------------------|
|----------------------------------------------|
|----------------------------------------------|
|----------------------------------------------| picking 2

|-----------------------------------------------------|
|-----------------------------------------------------|
|-----------------------------------------------------|
|---9999--7777-9999--5555--9999--/7777--/5555--7777---|
|---9999--7777-9999--5555--9999--/7777--/5555--7777---|
|---9999--5555-7777--3333--7777--/5555--/3333--5555---| (x2)
  pm ....      ....     ....     ....    ....      ....        ....       ....  
  (ease up on palm mute second time around)

|---------------------6-8----------10-11-10-11-10-8-8-6-8-10---|
|--5-77-9-10-9-10-9-7-----10-10109-----------------------------|
|--------------------------------------------------------------|
|--------------------------------------------------------------|
|--------------------------------------------------------------|

|---------------------------------|
|---------------------------------|
|---------------------------------|
|---9--8--/5-/6---9--8--/5-/6-----|
|---9--8--/5-/6---9--8--/5-/6-----|
|---7--6--/3-/4---7--6--/3-/4-----|

|-------------------------------------------------------------------|
|--------------------------------------------------------12-13------|
|---7-9-9~-11-12-11~-11-12-11-9--12-14-12--12-14-12-11--------------|
|-------------------------------------------------------------------|
|-------------------------------------------------------------------|
|-------------------------------------------------------------------| (higher pitched alternate way)

That is How i Play it and it sounds good.....and yeah... okay....
Comments