Cradle Of Filth - Nymphetamine Chords & Tabs

 

Nymphetamine Chords & Tabs

Cradle Of Filth Chords & Tabs

Version: 4 Type: Bass Tab

Nymphetamine Bass Tab

   
Nymphetamine by Cradle Of Filth

Standard [E,A,D,G]

*=let ring  \=slide down   /=slide up

Intro:
G|--------------------------|
D|--------------------------|
A|--------------------------|
E|-3----6----4-\1----3*-----| 2x

Lead to the river...
G|--------------------------|
D|--------------------------|
A|--------------------------|
E|-3----6----4-\1----3*-----| 2x

Cold was my soul...
G|--------------------------|
D|--------------------------|
A|--------------------------|
E|-3----6----4-\1----3*-----| 2x

Bared on your tomb...
G|-----------------------------------------------------|
D|-----------------------------------------------------|
A|-----------------------------------------------------|
E|-3-3-3-3-3-3--1-1-1-1-1-1--3-3-3-3-3-3--6-6-6-6-6-6--|

G|-----------------------------------------------------|
D|-----------------------------------------------------|
A|-----------------------------------------------------|
E|-3-3-3-3-3-3--1-1-1-1-1-1--6-6-6-6-6-6--1-1-1-1-1-1--| 2x

Six feet deep is the incision...
G|-----------------------------------------------------|
D|-----------------------------------------------------|
A|-3-3-3-3-3-3--3-3-3-3-3-3--1-1-1-1-1-1--1-1-1-1-1-1--|
E|-----------------------------------------------------|

G|-----------------------------------------------------|
D|-----------------------------------------------------|
A|-----------------------------------------------------|
E|-4-4-4-4-4-4--4-4-4-4-4-4--3-3-3-3-3-3--3-3-6-3-6-3--| 2x
[ Tab from: http://www.guitartabs.cc/tabs/c/cradle_of_filth/nymphetamine_btab_ver_4.html ]
Nypheta........mine
G|------------||---------||------|
D|------------||o-------o||------|
A|-------6-6--||o-------o||------|
E|------------||-5-4-1-2-||4x--6*|

Fold to my arms...
G|--------------------------|
D|--------------------------|
A|--------------------------|
E|-3----6----4-\1----3*-----| 2x

Chistening stars...
G|--------------------------|
D|--------------------------|
A|--------------------------|
E|-3----6----4-\1----3*-----| 2x

Bared on your tomb...
G|-----------------------------------------------------|
D|-----------------------------------------------------|
A|-----------------------------------------------------|
E|-3-3-3-3-3-3--1-1-1-1-1-1--3-3-3-3-3-3--6-6-6-6-6-6--|

G|-----------------------------------------------------|
D|-----------------------------------------------------|
A|-----------------------------------------------------|
E|-3-3-3-3-3-3--1-1-1-1-1-1--6-6-6-6-6-6--1-1-1-1-1-1--| 2x

Six feet deep is the incision...
G|-----------------------------------------------------|
D|-----------------------------------------------------|
A|-3-3-3-3-3-3--3-3-3-3-3-3--1-1-1-1-1-1--1-1-1-1-1-1--|
E|-----------------------------------------------------|

G|-----------------------------------------------------|
D|-----------------------------------------------------|
A|-----------------------------------------------------|
E|-4-4-4-4-4-4--4-4-4-4-4-4--3-3-3-3-3-3--3-3-6-3-6-3--| 2x

Nypheta........mine
G|------------||---------||------|
D|------------||o-------o||------|
A|-------6-6--||o-------o||------|
E|------------||-5-4-1-2-||4x--6-|