Cradle Of Filth - No Time To Cry Chords & Tabs

 

No Time To Cry Chords & Tabs

Cradle Of Filth Chords & Tabs

Version: 3 Type: Tab 0 ratings
1 star 2 stars 3 stars 4 stars 5 stars
comments

No Time To Cry Tab

   
This is not maybe my best tab but it helps....


Intro
D|-------------------------------------------------|
A|-------------------------------------------------|
F|-------------------------------------------------|  {x4}
C|-2--4-5-4----2--4-5-4----------------------------|
G|----------5--------------------------------------|
D|----------------------7--------------------------|

Riff A
D|--------------------------------------------------------------|
A|--------------------------------------------------------------|
F|--------------------------------------------------------------|
C|-13-13-13-13-13-11-13--9-9-9-9-9-8-8-9-9--6-6-6-6-6-9-9-8-8-9-|
G|-11-11-11-11-11-11-11--7-7-7-7-7-7-7-7-7--4-4-4-4-4-4-4-4-4-4-|
D|-11-11-11-11-11-11-11--7-7-7-7-7-7-7-7-7--4-4-4-4-4-4-4-4-4-4-|
Riff A(cont.)
D|-------------------------------------------------|
A|-------------------------------------------------|
F|-------------------------------------------------|
C|-8-8-8-8-9-11-9-8--------------------------------|  x2
G|-6-6-6-6-6-6--6-6--------------------------------|
D|-6-6-6-6-6-6--6-6--------------------------------|

Verse
D|-----------------------------------------------------|
A|-----------------------------------------------------|
F|-----------------------6-6-6-6-6-8-888---------------|  x2
C|-6-6-6-6-6-9-2-2-------6-6-6-6-6/8-888-9-8-----------|
G|-6-6-6-6-----2-2-2-1-2-4-4-4-4-4-6-666---------------|
D|-4-4-4-4-----0-0-------------------------------------|

Riff B
D|-------------------------------------------------|
A|-------------------------------------------------|
F|-------------------------------------------------|
C|----9-8-9---9-8-9---9-8-9---8-9-11-9-8-9---------|
G|-11-------7-------4-------6----------------------|
D|-------------------------------------------------|
                                                     tremelo picking here
D|-------------------------------------------------  <----|
A|--------------------------------------------------------|
F|--------------------------------------------------------|
C|----9-8-9---9-8-9---9-8-9---8-9-11-9-8------------------|
G|-11-------7-------4-------6-----------------------------|
D|--------------------------------------------------------|

  Chorus:
D|-------------------------------------------------|
A|-------------------------------------------------|
F|-------------------------------------------------|  x3
C|----------------------------9988-----------------|
G|-6-66-6----4-44-4----2-22-2-----99---------------|
D|-4-44-4-00-2-22-2-00-0-00-0----------------------|

D|----------------------------------------------------|
A|----------------------------------------------------|
F|-----------------------------------6----------------|  x1
C|----------------------------9988---6-hold-for-8-----|Counts
G|-6-66-6-xx-4-44-4-xx-2-22-2-----99-4----------------|
D|-4-44-4-00-2-22-2-00-0-00-0-------------------------|


D|--------------------------------------------------|
A|--------------------------------------------------|
F|--------------------------------------------------|  x3
C|-6------------------------------------------------|
G|-6------------------------------------------------|(holds 8 counts)((each time))
D|-4------------------------------------------------|

  Rest for 8 measures
[ Tab from: http://www.guitartabs.cc/tabs/c/cradle_of_filth/no_time_to_cry_tab_ver_3.html ]
  Riff B
D|-------------------------------------------------|
A|-------------------------------------------------|
F|-------------------------------------------------|
C|----9-8-9---9-8-9---9-8-9---8-9-11-9-8-9---------|
G|-11-------7-------4-------6----------------------|
D|-------------------------------------------------|
                                                     tremolo picking here
D|-------------------------------------------------  <---|
A|-------------------------------------------------------|
F|-------------------------------------------------------|
C|----9-8-9---9-8-9---9-8-9---8-9-11-9-8-----------------|
G|-11-------7-------4-------6----------------------------|
D|-------------------------------------------------------|

  Chorus:
D|-------------------------------------------------|
A|-------------------------------------------------|
F|-------------------------------------------------|  x3
C|----------------------------9988-----------------|
G|-6-66-6-xx-4-44-4-xx-2-22-2-----99---------------|
D|-4-44-4-00-2-22-2-00-0-00-0----------------------|

D|----------------------------------------------------|
A|----------------------------------------------------|
F|-----------------------------------6----------------|  x1
C|----------------------------9988---6-hold-for-8-----|counts)
G|-6-66-6----4-44-4----2-22-2-----99-4----------------|
D|-4-44-4-00-2-22-2-00-0-00-0-------------------------|

D|--------------------------------------------------|
A|--------------------------------------------------|
F|--------------------------------------------------|  x3
C|-6------------------------------------------------| (hold G#5 Chord for 8 counts)
G|-6------------------------------------------------|
D|-4------------------------------------------------|


D|-------------------------------------------------|
A|-------------------------------------------------|
F|-------------------------------------------------|  x4
C|-------------------------------------------------|
G|---5-2-5-----------------------------------------|
D|-2-----------------------------------------------|

  verse
D|-------------------------------------------------|
A|-------------------------------------------------|
F|-----------------------6-6-6-6-6/8-888-----------|  x2
C|-6-6-6-6-6-9-2-2-------6-6-6-6-6/8-888-9-8-------|
G|-6-6-6-6-----2-2-2-1-2-4-4-4-4-4/6-666-----------|
D|-4-4-4-4-----0-0---------------------------------|

  Riff B
D|-------------------------------------------------|
A|-------------------------------------------------|
F|-------------------------------------------------|
C|----9-8-9---9-8-9---9-8-9---8-9-11-9-8-9---------|
G|-11-------7-------4-------6----------------------|
D|-------------------------------------------------|

D|-------------------------------------------------------|  tremolo picking here
A|-------------------------------------------------  <---|
F|-------------------------------------------------------|
C|----9-8-9---9-8-9---9-8-9---8-9-11-9-8-----------------|
G|-11-------7-------4-------6----------------------------|
D|-------------------------------------------------------|

  Chorus
D|-------------------------------------------------|
A|-------------------------------------------------|
F|-------------------------------------------------|  x4
C|----------------------------9988-----------------|
G|-6-66-6----4-44-4----2-22-2-----99---------------|
D|-4-44-4-00-2-22-2-00-0-00-0----------------------|

 Strike this on the end...
D|----|
A|----|
F|----|
C|-6--|
G|-6--|
D|-4--|

kenven_maiden@yahoo.com
vivan los latino...........
Comments