Cradle Of Filth - Nevermore Chords & Tabs

 

Nevermore Chords & Tabs

Cradle Of Filth Chords & Tabs

Version: 3 Type: Tab 0 ratings
1 star 2 stars 3 stars 4 stars 5 stars
comments

Nevermore Tab

   
---------------------------------------------------------------------------
			     Nevermore - Cradle of FIlth
---------------------------------------------------------------------------
Tabbed by: metalmaid
Email: shagedelic_baby@hotmail.com
*this is my first time tabbing on here*
i got quite a good chunk of this song, but there is some missing. i'd appreciate

your input

Tuning:Standard
Guitar 1
e|--------------------------------------------------------------------------|
B|--------------------------------------------------------------------------|
G|---2----------------2----------------2------------------------------------|
D|-2---2------------2---2------------2---2------2h3p2-----------------------|
A|----------------------------------------------------3---2h3-2--/5-3-------|
E|--------------------------------------------------------------------------|
Guitar 2  					    			  3x
e|--------------------------------------------------------------------------|
B|--------------------------------------------------------------------------|
G|--------------------------------------------------------------------------|
D|--------3-5-3-0----------3-5-3-0----------3-5-3-0-------------------------|
A|--------------------------------------------------------------------------|
E|--------------------------------------------------------------------------|


Guitar 1
e|--------------------------------------------------------------------------|
B|--------------------------------------------------------------------------|
G|---2----------------2----------------2------------------------------------|
D|-2---2------------2---2------------2---2------2h3p2-----------------------|
A|----------------------------------------------------3---2h3-2--/5-3--5----|
E|--------------------------------------------------------------------------|
Guitar 2
e|--------------------------------------------------------------------------|
B|--------------------------------------------------------------------------|
G|--------------------------------------------------------------------------|
D|--------3-5-3-0----------3-5-3-0----------3-5-3-0-------------------------|
A|--------------------------------------------------------------------------|
E|--------------------------------------------------------------------------|


Guitar 1
e|--------------------------------------------------------------------------|
B|--------------------------------------------------------------------------|
G|--------------------------------------------------------------------------|
D|--------------------------------------------------------------------------|
A|--------------------------------------------------------------------------|
E|--------------------------------------------------------------------------|
Guitar 2							       x4
e|--------------------------------------------------------------------------|
B|-----3-------3-------3-------3-------3-------3-------3-------3------------|
G|---2---2---2---2---2---2---2---2---2---2---2---2---2---2---2---2----------|
D|-0-------0-------0-------0------------------------------------------------|
A|---------------------------------1-------1-------1-------1----------------|
E|--------------------------------------------------------------------------|
 Piano D E F E F D  D E F G F E~F~E D


Guitar 1
e|--------------------------------------------------------------------------|
B|--------------------------------------------------------------------------|
G|--------------------------------------------------------------------------|
D|-0-2/3-2/3-0---0-2-3-5-3-2h3p2p0-----0-2/3-2/3-0---0-2-3-5-3-2h3p2p0------|
A|--------------------------------------------------------------------------|
E|--------------------------------------------------------------------------|
Guitar 2
e|--------------------------------------------------------------------------|
B|-----3-------3-------3-------3-------3-------3-------3-------3------------|
G|---2---2---2---2---2---2---2---2---2---2---2---2---2---2---2---2----------|
D|-0-------0-------0-------0------------------------------------------------|
A|---------------------------------1-------1-------1-------1----------------|
E|--------------------------------------------------------------------------|


Guitar 1
e|--------------------------------------------------------------------------|
B|--------------------------------------------------------------------------|
G|--------------------------------------------------------------------------|
D|-0---2-3--2h3p2-----------------------------------------------------------|
A|----------------1--0-1-0--------------------------------------------------|
E|---------------------------1-0--------------------------------------------|
  There's quite a space here, while he's singing, where i don't know what's
  going on.
[ Tab from: http://www.guitartabs.cc/tabs/c/cradle_of_filth/nevermore_tab_ver_3.html ]
Guitar 1
e|--------------------------------------------------------------------------|
B|-----------0-----------------0-----------------0----------------0---------|
G|--------2-------2---------2------2----------2------2---------2-----2------|
D|-----2-----------------2-----------------2----------------2---------------|
A|--0-----------------0-----------------0----------------0------------------|
E|--------------------------------------------------------------------------|
Guitar 1 (continued from above)
e|--------------------------------------------------------------------------|
B|-----------0----------------0----------------0----------------0-----------|
G|--------2------2---------2------2---------2------2---------2------2-------|
D|--------------------------------------------------------------------------|
A|-----0----------------0----------------0----------------0-----------------|
E|--1----------------1----------------1----------------1--------------------|
(above piece played x4 before joined by guitar 2)
Guitar 2
e|---------------------------------------------------------------------------|
B|17-----------------17-----------------17----------------17-----------------|
G|----17--14--16---------17--14--16--------17--14--16---------17--14--16-----|
D|----------------14-----------------14----------------14-----------------14-|
A|---------------------------------------------------------------------------|
E|---------------------------------------------------------------------------|


Guitar 1
e|--------------------------------------------------------------------------|
B|--------------------------------------------------------------------------|
G|--------harmonizing with guitar2 but i can't seem to pick it out----------|
D|--------------------------------------------------------------------------|
A|--------------------------------------------------------------------------|
E|--------------------------------------------------------------------------|
Guitar 2
e|---------------------------------------------------------------------------|
B|17-----------------17-----------------17----------------17-----------------|
G|----17--14--16---------17--14--16--------17--14--16---------17--14--16-----|
D|----------------14-----------------14----------------14-----------------14-|
A|---------------------------------------------------------------------------|
E|---------------------------------------------------------------------------|


Guitar 1
e|--------------------------------------------------------------------------|
B|--------------------------------------------------------------------------|
G|-17--15--13--12--13p12p10--10--13--12--13------13--12--13------13--12--13-|
D|-------------------------------------------10--------------12-------------|
A|--------------------------------------------------------------------------|
E|--------------------------------------------------------------------------|
Guitar 1 (continued from above)
e|-/12--10-------------------------------------------------------------------|
B|----------13--12--13p12p10--10--13--12--13------13--12--13------13--12--13-|
G|--------------------------------------------10--------------12-------------|
D|---------------------------------------------------------------------------|
A|---------------------------------------------------------------------------|
E|---------------------------------------------------------------------------|
Guitar 1 (continued)
e|------------------12--10--12------12--10--12------12--10--12--/15--12-----|
B|--------------10-------------------------------------------------------15-|
G|-9--9--10--9------------------10--------------12--------------------------|
D|--------------------------------------------------------------------------|
A|--------------------------------------------------------------------------|
E|--------------------------------------------------------------------------|
Guitar 1 (continued)
e|--------------------------------------------------------------------------|
B|-12--13p12p10--10---------------------------------------------------------|
G|------------------------(i don't remember what goes on next)--------------|
D|--------------------------------------------------------------------------|
A|--------------------------------------------------------------------------|
E|--------------------------------------------------------------------------|

Guitar 1  not sure how many times each chord is picked. just listen to song
e|--------------------------------------------------------------------------|
B|--------------------------------------------------------------------------|
G|--------------------------------------------------------------------------|
D|--2-----------------------------------------------------------------------|
A|--0--3--5--2--------------------------------------------------------------|
E|-----1--3--0--------------------------------------------------------------|
Guitar 2
e|--------------------------------------------------------------------------|
B|--------------------------------------------------------------------------|
G|--------------------------------------------------------------------------|
D|--------------------------------------------------------------------------|
A|---------------3-2-3--2h3-3/5-3-2-3p2p0--2-3/7-5-3-2-----2-5h7p5--2-0-----|
E|-----------------------------------------------------0-3------------------|


Guitar 1 repeats a few times
e|---------------------------------------------------------------------------|
B|---------------------------------------------------------------------------|
G|---------------------------------------------------------------------------|
D|--2p0---0---------------------------------2p0---0--------------------2-3-2-|
A|0-----3---3---0-2-3--3/5\3-2--2-3-2-0---------3---3---0-2-3--3/5\3-2-------|
E|---------------------------------------------------------------------------|


(at this point i don't remember which guitar is which)
Guitar 1
e|--------------------------------------------------------------------------|
B|--------------------------------------------------------------------------|
G|--------------------------------------------------------------------------|
D|--------------------------------------------------------------------------|
A|-333333--555555--777777777777--------5-7-8-7------------------------------|
E|-111111--333333--555555555555----5-7--------------------------------------|


Guitar 2
e|--------------------------------------------------------------------------|
B|--------------------------------------------------------------------------|
G|--------------------------------------------------------------------------|
D|-----------------------------------------2-3-2----------------------------|
A|-----3-2-3------3-2-3--0-0-3-2-3--0-2-3-----------------------------------|
E|-1-1--------3-3-----------------------------------------------------------|


frankly i'm sick of tabbing, so i'll end it here

| /  slide up
| \  slide down
| h  hammer-on
| p  pull-off
| ~  vibrato
| +  harmonic
| x  Mute note
============================================================================
Comments