Cradle Of Filth - Nevermore Chords & Tabs

 

Nevermore Chords & Tabs

Cradle Of Filth Chords & Tabs

Version: 2 Type: Tab 0 ratings
1 star 2 stars 3 stars 4 stars 5 stars
comments

Nevermore Tab

   
-----------------------------------------------------------------------------
			     Nevermore - Cradle Of Filth
-----------------------------------------------------------------------------
Tabbed by:yeller56
Email:mimsville@earthlink.net
This is really just the rythem part of the song I'll try and figure out the Lead in 
when I get the time. MUCHO LOVO!

Tuning:Standard or in C tuning either one I'm not sure.
Intro/Chorus

Song:Nevermore
Album:Damnation and a Day
Artist:Cradle of Filth

e|--------------------------------------------------------------------------|
B|--------------------------------------------------------------------------|
G|--2---5-5-5---2--5-5-5----------------------------------------------------|
D|-2-2--3-3-3--2-2-3-3-3--2h3p2---------------------------------------------|
A|------------------------------3-2-3-2-2/5-3-------------------------------|
E|--------------------------------------------------------------------------|
P.M.    . . .      . . .

This part is played behind the lead.
E---------------------------------------------------------------------------|
B-----3-------3-------3-------3-------3-------3-------3----------3----------|
G---2---2---2---2---2---2---2---2---2---2---2---2---2---2------2---2--------|
D-0-------0-------0-------0-------1-------1-------1-------1--0-------0------|
A---------------------------------------------------------------------------|
E---------------------------------------------------------------------------|
[ Tab from: http://www.guitartabs.cc/tabs/c/cradle_of_filth/nevermore_tab_ver_2.html ]
The song kinda breaks down here.
e|--------------------------------------------------------------------------|
B|--------------------------------------------------------------------------|
G|--------------------------------------------------------------------------|
D|--------------------------------------------------------------------------|
A|--3-2-3-2-3-5-3-2-0--0-3-7~-5~-3~-2~-------2-2h3-2^(Full)-----------------|
E|-------------------------------------0~-3~--------------------------------|

>>>>>>>>>>>>>>>>>>>>>>>>>>>>>>>BASS SLIDE<<<<<<<<<<<<<<<<<<<<<<<<<<<<<<<<<<<<

Awesome Riff
E---------------------------------------------------------------------------|
B---------------------------------------------------------------------------|
G---------------------------------------------------------------------------|
D---2-0---------------------------------2-0----------------------2-3-2------|
A-0-----3-5-3-0-2h3-3-5-3-2-3-2---0----0-----3-5-3-0-2h3-3-5-3-2------------|
E-----------------------------3---------------------------------------------|

e|--------------------------------------------------------------------------|
B|--------------------------------------------------------------------------|
G|--------------------------------------------------------------------------|
D|-------------------------------------------2h3p2--------------------------|
A|-------------------------------------0-2-3--------------------------------|
E|--000000000-2222222222222-3333333333--------------------------------------|
P.M.......... ............. .......... . . .
e|--------------------------------------------------------------------------|
B|--------------------------------------------------------------------------|
G|--------------------------------------------------------------------------|
D|------2-3-2-----2-3-2-----------------------------------------------------|
A|--0-0-------0-0--------0-0-2-3-2--0-0-2-3-2-------------------------------|
E|--------------------------------------------------------------------------|
P.M.. . . . . . . . . . . . . . .   . . . . .
| /  slide up
| \  slide down
| h  hammer-on
| p  pull-off
| ~  vibrato
| +  harmonic
| x  Mute note
=============================================================================


I'll have more later when I get the time. Enjoy! (I own Chris L.)
Comments