Cradle Of Filth - Gilded Cunt Chords & Tabs

 

Gilded Cunt Chords & Tabs

Cradle Of Filth Chords & Tabs

Version: 4 Type: Tab 0 ratings
1 star 2 stars 3 stars 4 stars 5 stars
comments

Gilded Cunt Tab

   
Band: Cradle Of Filth
Album: Nymphetamine
Song: Gilded Cunt
Record Label: RoadRunner
Tuning: C G C F A D

|--------------------------------------------------------------|
|--------------------------------------------------------------|
|--------------------------------------------------------------|
|---3-3--4-4-4-4---3-3--4-4-4--6---3-3--4-4-4-4---3-3--6-5-4---|
|---3-3--4-4-4-4---3-3--4-4-4--6---3-3--4-4-4-4---3-3--6-5-4---| (x4)
|---3-3--4-4-4-4---3-3--4-4-4--6---3-3--4-4-4-4---3-3--6-5-4---|
         pm.....        pm...           pm.....        pm...

|--------------------------------------------------------------------|
|--------------------------------------------------------------------|
|--------------------------------------------------------------------|
|---------------------------------0-0-0-0---7-7--7-8-8--8-7-7--7-8-8-|
|-----------5555------------------0-0-0-0---7-7--7-8-8--8-7-7--7-8-8-| (x4)
|-55555555--------5555-6666-8888--0-0-0-0---7-7--7-8-8--8-7-7--7-8-8-|
                tremelo picking   pm.....
 
|--------------------------------------------------------------|
|--------------------------------------------------------------|
|--------------------------------------------------------------|
|---3-3--4-4-4-4---3-3--4-4-4--6---3-3--4-4-4-4---3-3--6-5-4---|
|---3-3--4-4-4-4---3-3--4-4-4--6---3-3--4-4-4-4---3-3--6-5-4---| (x2)
|---3-3--4-4-4-4---3-3--4-4-4--6---3-3--4-4-4-4---3-3--6-5-4---|
         pm.....        pm...           pm.....        pm...
                     
|--------------------------------------------------------------------|
|--------------------------------------------------------------------|
|--------------------------------------------------------------------|
|---------------------------------0-0-0-0---7-7--7-8-8--8-7-7--7-8-8-|
|-----------5555------------------0-0-0-0---7-7--7-8-8--8-7-7--7-8-8-| (x2)
|-55555555--------5555-6666-8888--0-0-0-0---7-7--7-8-8--8-7-7--7-8-8-|
                tremelo picking   pm.....

|-------------------------------------------------------------------------------------|
|------------------8---------8----------10--------------------------8---8-------------|
|--7--9-10-7--9-10---10-9-10----10-9-10----10-9-10--7--9-10-7--9-10---5---9-7-9-10-9--|
|-------------------------------------------------------------------------------------|
|-------------------------------------------------------------------------------------| (x2)
|-------------------------------------------------------------------------------------|

|------------------------------------------------------------------------------------------------|
|------------------------------------------------------------------------------------------------|
|------------------------------------------------------------------------------------------------|
|----------8----------8----------8----------------------------8----------8----------8----12--11--| 
|----------8----------8----------8--65-54-4-3-1-2-------------8----------8----------8----12--11--|
|-99999999-8-99999999-8-99999999-8-------------------99999999-8-99999999-8-99999999-8----10---9--|

|-------------------------------------------------------------------------------------------------------------|
|-------------------------------------------------------------------------------------------------------------|
|-------------------------------------------------------------------------------------------------------------|
|-4-x-x-x-x-4-5-4-x-x-x-x-4-5-4-x-x-x-x-4-5--7-8-7-8-5-4-5-4------4-4-4-5--4-4-4-5--4-4-4-5--7-8-7-8-5-4-5-4--|(x4) 
|-4-x-x-x-x-4-5-4-x-x-x-x-4-5-4-x-x-x-x-4-5--7-8-7-8-5-4-5-4-(x3)-4-4-4-5--4-4-4-5--4-4-4-5--7-8-7-8-5-4-5-4--| 
|-4-x-x-x-x-4-5-4-x-x-x-x-4-5-4-x-x-x-x-4-5--7-8-7-8-5-4-5-4------4-4-4-5--4-4-4-5--4-4-4-5--7-8-7-8-5-4-5-4--|
[ Tab from: http://www.guitartabs.cc/tabs/c/cradle_of_filth/gilded_cunt_tab_ver_4.html ]
|--------------------------------------------------------------|
|--------------------------------------------------------------|
|--------------------------------------------------------------|
|---3-3--4-4-4-4---3-3--4-4-4--6---3-3--4-4-4-4---3-3--6-5-4---|
|---3-3--4-4-4-4---3-3--4-4-4--6---3-3--4-4-4-4---3-3--6-5-4---| (x2)
|---3-3--4-4-4-4---3-3--4-4-4--6---3-3--4-4-4-4---3-3--6-5-4---|
         pm.....        pm...           pm.....        pm...

|--------------------------|
|--------------------------|
|--------------------------|
|--3--6--5--4--4--5--4--3--|
|--3--6--5--4--4--5--4--3--| (x4)
|--3--6--5--4--4--5--4--3--|

|--------------------------------------------------------------------|
|--------------------------------------------------------------------|
|--------------------------------------------------------------------|
|---------------------------------0-0-0-0---7-7--7-8-8--8-7-7--7-8-8-|
|-----------5555------------------0-0-0-0---7-7--7-8-8--8-7-7--7-8-8-| (x2)
|-55555555--------5555-6666-8888--0-0-0-0---7-7--7-8-8--8-7-7--7-8-8-|
                tremelo picking   pm.....

|-------------------------------------------------------------------------------------|
|------------------8---------8----------10--------------------------8---8-------------|
|--7--9-10-7--9-10---10-9-10----10-9-10----10-9-10--7--9-10-7--9-10---5---9-7-9-10-9--|
|-------------------------------------------------------------------------------------|
|-------------------------------------------------------------------------------------| (x2)
|-------------------------------------------------------------------------------------|

|------------------------------------------------------------------------------------------------|
|------------------------------------------------------------------------------------------------|
|------------------------------------------------------------------------------------------------|
|----------8----------8----------8----------------------------8----------8----------8----12--11--| 
|----------8----------8----------8--65-54-4-3-1-2-------------8----------8----------8----12--11--|
|-99999999-8-99999999-8-99999999-8-------------------99999999-8-99999999-8-99999999-8----10---9--|

|------------------------------------------------------------------------------------------------------------|
|------------------------------------------------------------------------------------------------------------|
|------------------------------------------------------------------------------------------------------------|
|-4-x-x-x-x-4-5-4-x-x-x-x-4-5-4-x-x-x-x-4-5--7-8-7-8-5-4-5-4------4-4-4-5--4-4-4-5--4-4-4-5--7-8-7-8-5-4-5-4-|(x4)
|-4-x-x-x-x-4-5-4-x-x-x-x-4-5-4-x-x-x-x-4-5--7-8-7-8-5-4-5-4-(x3)-4-4-4-5--4-4-4-5--4-4-4-5--7-8-7-8-5-4-5-4-| 
|-4-x-x-x-x-4-5-4-x-x-x-x-4-5-4-x-x-x-x-4-5--7-8-7-8-5-4-5-4------4-4-4-5--4-4-4-5--4-4-4-5--7-8-7-8-5-4-5-4-|

|--------------------------------------------------------------|
|--------------------------------------------------------------|
|--------------------------------------------------------------|
|---3-3--4-4-4-4---3-3--4-4-4--6---3-3--4-4-4-4---3-3--6-5-4---|
|---3-3--4-4-4-4---3-3--4-4-4--6---3-3--4-4-4-4---3-3--6-5-4---| (x2)
|---3-3--4-4-4-4---3-3--4-4-4--6---3-3--4-4-4-4---3-3--6-5-4---|
         pm.....        pm...           pm.....        pm...

|---------------------------|
|---------------------------|
|---------------------------|
|--3--6--5--4--4--5--4--3---|
|--3--6--5--4--4--5--4--3---| (x4)
|--3--6--5--4--4--5--4--3---|

|------------------------------------------|
|------------------------------------------|
|------------------------------------------|
|------------------------------------------|
|------------------------------------------|
|--3333-6666-5555-44444444-5555-4444 3333--|
   Pm.. .... .... ........ .... .... ....           

|-----|
|-----|
|-----|
|--2--|
|--2--|
|--2--|
Comments