Cradle Of Filth - Filthy Little Secret Chords & Tabs

 

Filthy Little Secret Chords & Tabs

Cradle Of Filth Chords & Tabs

Version: 1 Type: Tab 0 ratings
1 star 2 stars 3 stars 4 stars 5 stars
comments

Filthy Little Secret Tab

   
Artist: Cradle of Filth
Song: Filthy Little Secret
Album: Nymphetamine
Tabbed by GPFM

This is my first tab its its probably shitty as hell, but one thing I know is right is
the intro. I'm sorry if it's not exact, you'll probably have to find the rhythm. But if
you like it than great! Please email me at cradleofbs@gmail.com and tell me, please. I'd
really like to know how my first tab did. Enjoy.

Tuning (low to high): DADGBe

Intro
(Guitar 1)
e|-------------------------------------------------|
B|-------------------------------------------------|
G|-------------------------------------------------|
D|-3333-3333-8888-666-8-5--3333-3333-6666-111-6-5--|
A|-3333-3333-8888-666-8-5--3333-3333-6666-111-6-5--|
D|-3333-3333-8888-666-8-5--3333-3333-6666-111-6-5--|x2
[ Tab from: http://www.guitartabs.cc/tabs/c/cradle_of_filth/filthy_little_secret_tab.html ]
(Guitar 2) Play the following after the intro:
G|-10-8-6-8-6-5-6-|

(Guitar 1)
e|-------------------------------------------------------|
B|-------------------------------------------------------|
G|-------------------------------------------------------|
D|-8888-8888-5555-5555-8888-5555-11 11 11 11-10 10 10 10-|
A|-8888-8888-5555-5555-8888-5555-11 11 11 11-10 10 10 10-|
D|-8888-8888-5555-5555-8888-5555-11 11 11 11-10 10 10 10-|x2

(Guitar 2) Play the following with the previous part G1 is playing:
e|------------------------------------|
B|--6/7\6-4-6--7-6-4-9-7-6--6/7\6-4-6-|
G|-3-----------------------3----------|x2

(Guitar 1)
e|------------------|
B|------------------|
G|------------------|
D|-2~-9-8--2~-3-9-8-|
A|-2~-9-8--2~-3-9-8-|
D|-2~-9-8--2~-3-9-8-|x2

That's all I got. Please email me and tell me what you think. I'm still working on the rest.
Comments