Cradle Of Filth - Desire In Violent Overture Chords & Tabs

 

Desire In Violent Overture Chords & Tabs

Cradle Of Filth Chords & Tabs

Version: 1 Type: Tab 0 ratings
1 star 2 stars 3 stars 4 stars 5 stars
comments

Desire In Violent Overture Tab

   
Desire in Violent Overture - Cradle of Filth
Tablature by Lord Johnie

Please visit my band on http://warlords.wz.cz/ and send me mail, if you have any problems with tabs.

Tuning: D (D,G,C,F,A,D)

----------------------------------------------------------
*: play fast
°: palm mute 
g1: Guitare 1
g2: Guitare 2
/: Slide
ph: Pitch Harmonic
~: Vibrato
----------------------------------------------------------

Intro: (0:00 - 0:27)
|----------------------------------|
|----------------------------------|
|----------------------------------|
|--7------------------------10-10--|
|--5----6----8--9--11-7--8--8--8---|
|-------4----6--7--9--5--6---------|
   *    *    *  *  *  *  *

Riff 1: (0:27 - 0:54) 

g1: (0:27 - 0:54)
|-----------|----------------|-----------|---------------|
|-----------|----------------|-----------|---------------|
|-----------|----------------|-----------|---------------|
|--9/10/9/--|--9/10/9-8/9/8--|--9/10/9/--|--6/7/6-5/6/5--|
|--7/8-/7/--|--7/8-/7-6/7/6--|--7/8-/7/--|--4/5/4-3/4/3--|
|-----------|----------------|-----------|---------------|
   °    °                       °    °
   *    *                       *    *

g2: solo 1 (0:36 à 0:41)
|-----------------------------------------------------------------|
|-----------------------------------------------------------------|
|--16/0--16-19-16-19-16--16-19-16-16--16-19-16-18-16-15-16--------|
|-----------------------------------------------------------------|
|-----------------------------------------------------------------|
|-----------------------------------------------------------14/0--|
   ph                ph           ph                     ~

g2: solo 2 (0:45 à 0:50)
|-----------------------------------|
|------12---------------------------|
|--12------8-9-8--------------9--8--|
|----------------10-9-7-6-7-6-------|
|-----------------------------------|
|-----------------------------------|
   ~   ph                     ph ph

-------------------------------------------------------------------------
[ Tab from: http://www.guitartabs.cc/tabs/c/cradle_of_filth/desire_in_violent_overture_tab.html ]
Riff 2: (0:54 - 1:12)
|---------------|
|---------------|
|---------7--5--|
|--7------7--5--|
|--7------5--3--|
|--5------------|

Riff 3: (1:12 - 1:30) 
|-----------|  |------------|  |-----------|
|----5-3-5--|  |------------|  |-----------|
|--5--------|--|-----9-7-9--|--|--5-9-7-9--|
|-----------|--|--10--------|--|-----------|
|-----------|  |------------|  |-----------|
|-----------|  |------------|  |-----------|


Riff 4: (1:30 - 1:48)
|-------------------------------|
|-------------------------------|
|-----4-----4--5----4-----------|
|--2--4--2--4--5----4-----------|
|--2--2--2--2--3----2--2-0------|
|--0-----0-----------------3-2--|
                       ° ° ° °

Riff 5: (2:16 - 2:33)
g1                            g2
|--------------------------| |--------------------------|
|--------------------------| |--------------------------|
|-------7--5-------5--7----| |-------7--9-------5--7----|
|--7----------7------------| |--7----------7------------|
|--------------------------| |--------------------------|
|--------------------------| |--------------------------|


Riff 6: (3:19 - 3:28)
|---------------------------------------|
|---------------------------------------|
|--7--5--3--2---------------------------|
|--7--5--3--2--5-3-2--2-2-2-2-2-2--3-3--|
|--5--3--1--0--5-3-2--2-2-2-2-2-2--3-3--|
|--------------3-1-0--0-0-0-0-0-0--1-1--|
               ° ° °

Riff 7: (3:55 - 4:04)
|------------------------------------------|
|------------------------------------------|
|--------------------------------5-5--5-5--|
|--7-7--7-7--7-7--7-7--3-3--3-3--5-5--5-5--|
|--7-7--7-7--7-7--7-7--3-3--3-3--3-3--3-3--|
|--5-5--5-5--5-5--5-5--1-1--1-1------------|


|------------------------------------------|
|------------------------------------------|
|--------------------------------7-7--7-7--|
|--7-7--7-7--7-7--7-7--3-3--3-3--7-7--7-7--|
|--7-7--7-7--7-7--7-7--3-3--3-3--5-5--5-5--|
|--5-5--5-5--5-5--5-5--1-1--1-1------------|

Structure:

Intro (3x)
Riff 1 (3x) + Solo 1 et Solo 2
Riff 2 (4x)
Riff 3 (32x)
Riff 4 (4x)
Riff 2 (4x)
Interlude
Riff 5 (2x)
Riff 4 (4x)
Intro (3x)
Riff 6 (2x)
Riff 2 (4x)
Riff 3 (16x)
Riff 7 (1x)
Comments