Cradle Of Filth - Dawn Of Eternity Chords & Tabs

 

Dawn Of Eternity Chords & Tabs

Cradle Of Filth Chords & Tabs

Version: 1 Type: Tab 0 ratings
1 star 2 stars 3 stars 4 stars 5 stars
comments

Dawn Of Eternity Tab

BAND: CRADLE OF FILTH
SONG: DAWN OF ETERNITY
ALBUM: US Version of the 1999 release "From The Cradle To Enslave E.P."

Tabbed by: Bobby Rafuse (metal_music69@hotmail.com)

Tuning: D (1 step down)

pm - palm mute
h  - hammer on
p  - pull off
"  - tremolo pick


*NOTE* Here's all the riffs you need to know to play this kick ass song.
I didn't put timing or anything so you'll have to figure out what goes where etc..
Please give me some feedback on this because this is my first time tabbing Cradle of Filth
and I'd like to know how I did. Sorry that there's no solos but I'm mostly a rhythm guitarist.
 Thanx everybody \m/


Riff 1a
|---------------------------|
|---------------------------|
|---------------------------|
|----------4---3------------|
|-2--------2---1------5--4--|
|-0-------------------3--2--|
pm                    .  .


Riff 1b
|---------------------------|
|---------------------------|
|---------------------------|
|----------4---3------------|
|-2--------2---1------5--4--|
|-0--------2---1------3--2--|
pm                    .  .


Riff 2
|---------------------------------------------------------------|
|---------------------------------------------------------------|
|---------------------------------------------------------------|
|-------------------------4-------3-------3-------3-------------|
|-2-------2-------2-------2--2-2--1--1-1--1--1-1--1--1-1--5--4--|
|-0--0-0--0--0-0--0--0-0----------------------------------3--2--|
pm   . .     . .     . .     . .     . .     . .     . .  .  .


Riff 3
|---------------------------------------------------|
|---------------------------------------------------|
|---------------------------------------------------|
|---------------------------------------------------|
|-8-----------8-----910-8-----------8----1---1------|
|-6-000000000-6-000-7-8-6-000000000-6--2---3---3-2--|
pm  .........   ...       .........    . . . . . .

[ Tab from: http://www.guitartabs.cc/tabs/c/cradle_of_filth/dawn_of_eternity_tab.html ]
Riff 4
|--------------------------------------------------------------------------------|
|--------------------------------------------------------------------------------|
|--------------------------------------------------------------------------------| Gtr.
|--------------------------------------------------------------------------------|  1
|-------------------------------3333322222---------------------------------------|
|-000000000000000000003333322222----------3333333333-2h3p2-11111111112222222222--|
| |
|--------------------------------------------------------------------------------|
|--------------------------------------------------------------------------------|
|-------------------------------5555544444---------------------------------------|
|-222222222222222222225555544444----------5555555555-4h5p4-33333333334444444444--| Gtr.
|--------------------------------------------------------------------------------|  2
|--------------------------------------------------------------------------------|


Fill 1
|----------------------------|
|----------------------------|
|----------------------------|
|----------------------------|
|-2--2--2--2--2--2--2--2--2--|
|-0--0--0--0--0--0--0--0--0--|


Fill 2
|--------------------------------------------------------------------------|
|--------------------------------------------------------------------------|
|--------------------------------------------------------------------------|
|--------------------------------------------------------------------------|
|--------------------------------------------------------------------------|
|-0-0-000-0-0-000-0-0-000-0-0-000-0-0-000-0-0-000-0-0-000-0-0-000-0-0-000--|
pm. . ... . . ... . . ... . . ... . . ... . . ... . . ... . . ... . . ...


Riff 5a
|------------------------------------------------------------------|
|------------------------------------------------------------------|
|------------------------------------------------------------------|
|------------------------------------------------------------------|
|-2-2-----2-2-----2-2-----2-2-----5-5-----5-5-----4-4-----4-4------|
|-0-0-000-0-0-000-0-0-000-0-0-000-3-3-333-3-3-333-2-2-222-2-2-222--|
pm. . ... . . ... . . ... . . ... . . ... . . ... . . ... . . ...


Riff 5b
|------------------------------------------------------------------|
|------------------------------------------------------------------|
|------------------------------------------------------------------|
|------------------------------------------------------------------|
|-2-2-----2-2-----2-2-----2-2-----5-5-----5-5-----4-4--------------|
|-0-0-000-0-0-000-0-0-000-0-0-000-3-3-333-3-3-333-2-2-222-333-222--|
pm. . ... . . ... . . ... . . ... . . ... . . ... . . ... ... ...


Fill 3
|---------|
|---------|
|---------|
|---------|
|-7"------|
|-0"------|
Comments