Cradle Of Filth - Cthulhu Dawn Chords & Tabs

 

Cthulhu Dawn Chords & Tabs

Cradle Of Filth Chords & Tabs

Version: 1 Type: Bass Tab 0 ratings
1 star 2 stars 3 stars 4 stars 5 stars
comments

Cthulhu Dawn Bass Tab

#----------------------------------PLEASE NOTE---------------------------------#
#This file is the author's own work and represents their interpretation of the-#
#song. You may only use this file for private study, scholarship, or research.-#
#------------------------------------------------------------------------------#

Cradle Of Filth - Cthulu Dawn
Submitted By: DAR
EMail: dar_netmaster@hotmail.com


Almost done but just a few more bits that I need
to get round to doing.



|----------------------|----------------------|----------------------
|----------------------|----------------------|---------5--4----5----
|---------5--6----5----|-------5----6----5----|--3-------------------
|--3-------------------|--2-------------------|----------------------
                                                                        
|--------------------------|----------------------|----------------------
|--------------------------|----------------------|----------------------
|--1--1--1--1--4--4--4--4--|---------5--6----5----|-------5----6----5----
|--------------------------|--3-------------------|--2-------------------
                                                  
|----------------------|--------------------------|
|---------5--4----5----|--------------------------|
|--3-------------------|--1--1--1--1--4--4--4--4--|
|----------------------|--------------------------|


                                                                      
|----------------------------------|----------------------------------
|--5-5-5-5-5-5-5-5-5-5-5-5-5-5-5-5-|--4-4-4-4-4-4-4-4-4-4-4-4-4-4-4-4-
|----------------------------------|----------------------------------
|----------------------------------|----------------------------------
                                                                     
|--5-5-5-5-5-5-5-5-5-5-5-5-5-5-5-5-|--8-8-8-8-8-8-8-8-8-8-8-8-8-8-8-8-
|----------------------------------|----------------------------------
|----------------------------------|----------------------------------
|----------------------------------|----------------------------------
                                                                     
|----------------------------------|----------------------------------
|--5-5-5-5-5-5-5-5-5-5-5-5-5-5-5-5-|--4-4-4-4-4-4-4-4-4-4-4-4-4-4-4-4-
|----------------------------------|----------------------------------
|----------------------------------|----------------------------------
                                                                     
|--5-5-5-5-5-5-5-5-5-5-5-5-5-5-5-5-|--8-8-8-8-8-8-8-8-8-8-8-8-8-8-8-8-|
|----------------------------------|----------------------------------|
|----------------------------------|----------------------------------|
|----------------------------------|----------------------------------|


                                                                       
|----------------------|----------------------|----------------------
|----------------------|----------------------|---------5--4----5----
|---------5--6----5----|-------5----6----5----|--3-------------------
|--3-------------------|--2-------------------|----------------------
                                                                         
|--------------------------|----------------------|----------------------
|--------------------------|----------------------|----------------------
|--1--1--1--1--4--4--4--4--|---------5--6----5----|-------5----6----5----
|--------------------------|--3-------------------|--2-------------------



"Cthulu dawn....."                                                  
|----------------------|--------------------------|
|---------5--4----5----|--------------------------|
|--3-------------------|--1--1--1--1--4--4--4--4--|
|----------------------|--------------------------|


[ Tab from: http://www.guitartabs.cc/tabs/c/cradle_of_filth/cthulhu_dawn_btab.html ]
"Spatter the stars....."
|----------------------------------|----------------------------------
|----------------------------------|----------------------------------
|----------------------------------|----------------------------------
|--0-0-0-0-0-0-0-0-0-0-0-0-0-0-0-0-|--0-0-0-0-0-0-0-0-0-0-0-0-0-0-0-0-
                                                                
|----------------------------------|----------------------------------|
|----------------------------------|----------------------------------|
|----------------------------------|----------------------------------|
|--5-5-5-5-5-5-5-5-5-5-5-5-5-5-5-5-|--8-8-8-8-8-8-8-8-8-8-8-8-8-8-8-8-| *4



"....to understand....."
|-----------------------------------|----------------------------------
|-----------------------------------|----------------------------------
|---5-5-5-5-5-5-5-5-5-5-5-5-5-5-5-5-|--6-6-6-6-6-6-6-6-6-6-6-6-6-6-6-6-
|-----------------------------------|----------------------------------
                                                                    
|----------------------------------|----------------------------------
|--6-6-6-6-6-6-6-6-6-6-6-6-8-8-6-6-|--5-5-5-5-5-5-5-5-5-5-5-5-5-5-5-5-
|----------------------------------|----------------------------------
|----------------------------------|----------------------------------
                                                                     
|----------------------------------|----------------------------------
|----------------------------------|----------------------------------
|--5-5-5-5-5-5-5-5-5-5-5-5-5-5-5-5-|--6-6-6-6-6-6-6-6-6-6-6-6-6-6-6-6-
|----------------------------------|----------------------------------
                                                         
|----------------------|----------------------|
|----------------------|----------------------|
|----------------------|----------------------|
|--7------7------7--8--|--7------7------7-----|




"Within this kissed disembowel arena...." (Fast Keyboard Part)
|----------------------------------|----------------------------------
|--5-5-5-5-5-5-5-5-5-5-5-5-5-5-5-5-|--4-4-4-4-4-4-4-4-4-4-4-4-4-4-4-4-
|----------------------------------|----------------------------------
|----------------------------------|----------------------------------
                                                                      
|--5-5-5-5-5-5-5-5-5-5-5-5-5-5-5-5-|--8-8-8-8-8-8-8-8-8-8-8-8-8-8-8-8-
|----------------------------------|----------------------------------
|----------------------------------|----------------------------------
|----------------------------------|----------------------------------
                                                                     
|----------------------------------|
|--5-5-5-5-5-5-5-5-5-5-5-5-5-5-5-5-|
|----------------------------------|
|----------------------------------| *4




"Unfurled across a world hurled to the black..."
|----------------------|----------------------|----------------------
|----------------------|----------------------|---------5--4----5----
|---------5--6----5----|-------5----6----5----|--3-------------------
|--3-------------------|--2-------------------|----------------------
                                                                        
|--------------------------|----------------------|----------------------
|--------------------------|----------------------|----------------------
|--1--1--1--1--4--4--4--4--|---------5--6----5----|-------5----6----5----
|--------------------------|--3-------------------|--2-------------------
                                                  
|----------------------|--------------------------|
|---------5--4----5----|--------------------------|
|--3-------------------|--1--1--1--1--4--4--4--4--|
|----------------------|--------------------------| *2
Comments