Cradle Of Filth - Carrion Chords & Tabs

 

Carrion Chords & Tabs

Cradle Of Filth Chords & Tabs

Version: 1 Type: Bass Tab

Carrion Bass Tab

   
artist-cradle of filth
song-carrion
album name-damnation and a day
tuning-e,a,d,g(standard tuning)
tabbed by jake cook (metaltyrant666)
e-mail - j_russell89@hotmail.com

this song is a great cradle song and has some good groove to it.
the bass starts when dani does his growl.coz the first guitar goes then the second
guitar goes next then the key boards and when the vocals start the bass begins.
if you have any corrections or questions e-mail me
who ever looks at this tab shouldnt have too much of a problem because i try to make
all my tabs as clear and easy as possible, so have fun and metal on!!

e|33333333---3333-2-2-23-333333--564534556-|
a|---------1-------------------------------|
d|-----------------------------------------|
g|-----------------------------------------|
[ Tab from: http://www.guitartabs.cc/tabs/c/cradle_of_filth/carrion_btab.html ]
e|3-r-1-r-3-223-r--555644453334556--------|
a|--e---e-------e-------------------------|
d|--s---s-------s-------------------------|
g|--t---t-------t-------------------------|

e|5-5-5432-5-7-54-------------------------|
a|----------------5-7-5-------------------|
d|----------------------------------------|
g|----------------------------------------|

e|7-9-7-9-10-12--7-9-7-9-----7-9-7-9-10-12--------|
a|-----------------------7-5--------------9879757-|
d|------------------------------------------------|
g|------------------------------------------------|

e|3-333-3--6-666-6--2-222-2---------------|
a|--------------------------1-111-1-------|
d|----------------------------------------|
g|----------------------------------------|

e|3-333-3--6-666-6--0-000-0---------------|
a|----------------------------------------|
d|----------------------------------------|
g|----------------------------------------|