Cradle Of Filth - Black Metal Chords & Tabs

 

Black Metal Chords & Tabs

Cradle Of Filth Chords & Tabs

Version: 3 Type: Tab 0 ratings
1 star 2 stars 3 stars 4 stars 5 stars
comments

Black Metal Tab

cradle of filth - black metal (venom cover)
[ Tab from: http://www.guitartabs.cc/tabs/c/cradle_of_filth/black_metal_tab_ver_3.html ]
main rift x 4
d|---------------------------------------------|
A|---------------------------------------------|
F|---------------------------------------------|
C|---------------------------------------------|
G|---------------------------------------------|
D|-8-5t-----7-5t-----6-5t-----3-0--0-0---------|
rift 2
d|-----------------------------------------------------------|
A|-----------------------------------------------------------|
F|-----------------------------------------------------------|
C|-----------------------------------------------------------|
G|-----------------------------------------------------------|
D|-10--7-7-7-------10--7-7-7-----10--7--7-7-7-7-5-7-5-7-5----|
main rift
d|---------------------------------------------|
A|---------------------------------------------|
F|---------------------------------------------|
C|---------------------------------------------|
G|---------------------------------------------|
D|-8-5t-----7-5t-----6-5t-----3-0--0-0---------|
rift 3 x 2
d|--------------------------------|--------------------------|
A|--------------------------------|--------------------------|
F|--------------------------------|--------------------------|
C|--7----9----10---11--12----14---|--------------------------|
G|--7----9----10---11--12----14---|-----------7-7--7--7--7---|
D|--5----7----8----9---10----12---|-3/5--5-5--5-5--5--5--5---|
fill 1
d|-------------------------------------------------------------------------|
A|-------------------------------------------------------------------------|
F|-------------------------------------------------------------------------|
C|----------------------------------------------------7--------------------|
G|-5--7-------------5--7-----------5--7------------5--7--------------------|
D|-3--5-------------3--5-----------3--5------------3--5--------------------|
main riff x 4
d|---------------------------------------------|
A|---------------------------------------------|
F|---------------------------------------------|
C|---------------------------------------------|
G|---------------------------------------------|
D|-8-5t-----7-5t-----6-5t-----3-0--0-0---------|
rift 2
d|-----------------------------------------------------------|
A|-----------------------------------------------------------|
F|-----------------------------------------------------------|
C|-----------------------------------------------------------|
G|-----------------------------------------------------------|
D|-10--7-7-7-------10--7-7-7-----10--7--7-7-7-7-5-7-5-7-5----|
main riff
d|---------------------------------------------|
A|---------------------------------------------|
F|---------------------------------------------|
C|---------------------------------------------|
G|---------------------------------------------|
D|-8-5t-----7-5t-----6-5t-----3-0--0-0---------|
riff 3 x 2
d|--------------------------------|--------------------------|
A|--------------------------------|--------------------------|
F|--------------------------------|--------------------------|
C|--7----9----10---11--12----14---|--------------------------|
G|--7----9----10---11--12----14---|-----------7-7--7--7--7---|
D|--5----7----8----9---10----12---|-3/5--5-5--5-5--5--5--5---|
fill 1
d|-------------------------------------------------------------------------|
A|-------------------------------------------------------------------------|
F|-------------------------------------------------------------------------|
C|----------------------------------------------------7--------------------|
G|-5--7-------------5--7-----------5--7------------5--7--------------------|
D|-3--5-------------3--5-----------3--5------------3--5--------------------|
fill 2
d|---------------------------------------------------------------------|
A|---------------------------------------------------------------------|
F|---------------------------------------------------------------------|
C|---------------------------------------------------------------------|
G|------------------------------------------------------------9--------|
D|--10p9p7-10p9p7-10p9p7-10p9p7-10p9p7-10p9p7-10p9p7-10p9p7---7--------|
rift 4
d|-----------------------------------------------------------------|
A|-----------------------------------------------------------------|
F|-----------------------------------------------------------------|
C|-----------------------------------------------------------------|
G|-----------------------------------------------------------------|
D|--7t------------575757--7t---------------12t----10---------------|

Fill 3 x 2
d|------------|
A|------------|
F|------------|
C|------------|
G|-5-7--------|
D|-3-5--------|
main rift x 4
d|---------------------------------------------|
A|---------------------------------------------|
F|---------------------------------------------|
C|---------------------------------------------|
G|---------------------------------------------|
D|-8-5t-----7-5t-----6-5t-----3-0--0-0---------|
rift 2
d|-----------------------------------------------------------|
A|-----------------------------------------------------------|
F|-----------------------------------------------------------|
C|-----------------------------------------------------------|
G|-----------------------------------------------------------|
D|-10--7-7-7-------10--7-7-7-----10--7--7-7-7-7-5-7-5-7-5----|
main rift
d|---------------------------------------------|
A|---------------------------------------------|
F|---------------------------------------------|
C|---------------------------------------------|
G|---------------------------------------------|
D|-8-5t-----7-5t-----6-5t-----3-0--0-0---------|
riff 3 x 2
d|--------------------------------|--------------------------|
A|--------------------------------|--------------------------|
F|--------------------------------|--------------------------|
C|--7----9----10---11--12----14---|--------------------------|
G|--7----9----10---11--12----14---|-----------7-7--7--7--7---|
D|--5----7----8----9---10----12---|-3/5--5-5--5-5--5--5--5---|
fill 1
d|-------------------------------------------------------------------------|
A|-------------------------------------------------------------------------|
F|-------------------------------------------------------------------------|
C|----------------------------------------------------7--------------------|
G|-5--7-------------5--7-----------5--7------------5--7--------------------|
D|-3--5-------------3--5-----------3--5------------3--5--------------------|
Fill 3
d|------------|
A|------------|
F|------------|
C|------------|
G|-5-7--------|
D|-3-5--------|
end......
but here is the lyric too...

Black is the night, metal we fight
Power amps set to explode
Energy screams, magic and dreams
Satan records the first note.
We chime the hell, chaos and hell
Metal for maniacs pure.
Fast melting steel, fortune on wheels
For BLACK METAL
lay down your sold to the gods rock `n' roll

Freaking so wild, nobody's mild
Giving it all that you've got.
Wild is so right, metal tonight
Faster than over the top.
Open the door, enter hells core
Black is the code for tonight
Atomic force, feel no remorse
Trunk up the amps now it's night
BLACK METAL
lay down your soul to the gods rock `n' roll
metal ten fold through the deadly black hole
riding hells stallions bareback and free
faking our chances with raw energy

Come ride the night with us
Rock hard and fight
United my legions we stand
Freak hard and wild for us
Give up your souls
Live for the guest satans band

Against the adds, black metal gods
Fight to achieve our goal
Tasting a spell, leather and hell
Black metal gods rock `n' roll
Building up steam, nuclear screams
War-heads are ready to fight
Black leather hounds, faster than sound
Metal our purpose in life.
BLACK METAL
lay down your soul to the gods rock `n' roll
black metal
Comments