Cradle Of Filth - Black Metal Chords & Tabs

 

Black Metal Chords & Tabs

Cradle Of Filth Chords & Tabs

Version: 1 Type: Tab 0 ratings
1 star 2 stars 3 stars 4 stars 5 stars
comments

Black Metal Tab

CraDle Of FiLth - Black Metal (Venom´s Cover)
Tabbed by: rockdrigoy2k!!!! rockdrigoy2k@hotmail.com

This is other Cradle´s Tab, so enoy it!
the song is great, better than the Venom´s version (original)

Tune: 1 Step Down 
Key:
t:tremollo
/:slide
p:pull off


Main RiFf (1):
     
d|---------------------------------------------|
A|---------------------------------------------|
F|---------------------------------------------|
C|---------------------------------------------|
G|---------------------------------------------|
D|-8-5t-----7-5t-----6-5t-----3-0--0-0---------|

Riff 2:

d|-----------------------------------------------------------|
A|-----------------------------------------------------------|
F|-----------------------------------------------------------|
C|-----------------------------------------------------------|
G|-----------------------------------------------------------|
D|-10--7-7-7-------10--7-7-7-----10--7--7-7-7-7-5-7-5-7-5----|

Riff 3:				   Fill 1:
d|--------------------------------|--------------------------|
A|--------------------------------|--------------------------|
F|--------------------------------|--------------------------|
C|--7----9----10---11--12----14---|--------------------------|
G|--7----9----10---11--12----14---|-----------7-7--7--7--7---|
D|--5----7----8----9---10----12---|-3/5--5-5--5-5--5--5--5---|
[ Tab from: http://www.guitartabs.cc/tabs/c/cradle_of_filth/black_metal_tab.html ]
Fill 2:
d|---------------------------------------------------------------------------|
A|---------------------------------------------------------------------------|
F|---------------------------------------------------------------------------|
C|----------------------------------------------------7----------------------|
G|-5--7-------------5--7-----------5--7------------5--7----------------------|
D|-3--5-------------3--5-----------3--5------------3--5----------------------|
						      hold

Riff4:

d|-----------------------------------------------------------------|
A|-----------------------------------------------------------------|
F|-----------------------------------------------------------------|
C|-----------------------------------------------------------------|
G|-----------------------------------------------------------------|
D|--7t------------575757--7t---------------12t----10---------------|


Fill 3:
			            				
d|---------------------------------------------------------------------
A|---------------------------------------------------------------------
F|---------------------------------------------------------------------
C|---------------------------------------------------------------------
G|------------------------------------------------------------9--------
D|--10p9p7-10p9p7-10p9p7-10p9p7-10p9p7-10p9p7-10p9p7-10p9p7---7--------


Fill 4
	d|------------|
	A|------------|
	F|------------|
	C|------------|
	G|-5-7--------|
Dani:	D|-3-5--------|
    black me-tal!!!!!!!

Riff Progresion:

RiFF1 x 4
Riff2
Riff1
Riff3 x 2
Fill1
RiFF1 x 4
Riff2
Riff1
Riff3 x 2
Fill1
Fill2
Riff4
Fill3 x 2
Riff1 x 4
Riff2
Riff1
Riff3 x 2
Fill1
Fill4

End
Comments