Cradle Of Filth - Beneath The Howling Stars Chords & Tabs

 

Beneath The Howling Stars Chords & Tabs

Cradle Of Filth Chords & Tabs

Version: 1 Type: Tab 0 ratings
1 star 2 stars 3 stars 4 stars 5 stars
comments

Beneath The Howling Stars Tab

Beneath The Howling Stars intro riff

E\---------------------\
B\---------------------\
G\---------------------\
D\--7---7-6-7-10-------\
A\--5-8-5-4-5--8-11-10-\
E\----6-----------9--8-\

Play every chord 4 times like so
[ Tab from: http://www.guitartabs.cc/tabs/c/cradle_of_filth/beneath_the_howling_stars_tab.html ]
E\------------------------------------------------------\
B\------------------------------------------------------\
G\------------------------------------------------------\
D\--7777------7777-6666-7777-10101010-------------------\
A\--5555-8888-5555-4444-5555--8-8-8-8-11111111-10101010-\
E\-------6666--------------------------9-9-9-9--8-8-8-8-\

There's the intro riff, gorgeous ain't it? ;) Nice and simple
Comments