Crackout - You Dumb Fuck Chords & Tabs

 

You Dumb Fuck Chords & Tabs

Crackout Chords & Tabs

Version: 2 Type: Tab 0 ratings
1 star 2 stars 3 stars 4 stars 5 stars
comments

You Dumb Fuck Tab

----------------------------------------------------------------------
			     Crackout - You dumb fuck
----------------------------------------------------------------------

Crackout are an amazing band they rule so much and i decided to make a tab of
this kick ass and easy to play song.

By: Pitfall

Intro:
e|-----------------------------------------------------------------|
B|---5---5---5----5---5---5----5---5---5---------------------------|
G|-------------------------------------------2---------------------|
D|-2---2---2----3---3---3----4---4---4-------2---2-----------------|
A|-------------------------------------------0---2-----------------|
E|-----------------------------------------------0-----------------|


e|-----------------------------------------------------------------|
B|-----------------------------------------------------------------|
G|----6--6-----6--6-----4------------------------------------------|
D|-2--6--6--2--6--6--2--4--4---------------------------------------|
A|-2--4--4--2--4--4--2--2--4---------------------------------------|
E|-0--------0--------0-----2---------------------------------------|

verse: (there is some wierd distortion so i use single notes)
e|-----------------------------------------------------------------|
B|-----------------------------------------------------------------|
G|---2--4-----2--4-------------------------------------------------|
D|-------------------7--5--2---------------------------------------|
A|-----------------------------------------------------------------|
E|-0-------0-------------------------------------------------------|

repeat intro (cut short with these cords)
e|-----------------------------------------------------------------|
B|-----------------------------------------------------------------|
G|----7--9---------------------------------------------------------|
D|-2--7--9---------------------------------------------------------|
A|-2--5--7---------------------------------------------------------|
E|-0---------------------------------------------------------------|

build up to chorus:
e|-----------------------------------------------------------------|
B|-----------------------------------------------------------------|
G|-----------------------------------------------------------------|
D|-2-2-2-2-2-2-----------------------------------------------------|
A|-2-2-2-2-2-2-----------------------------------------------------|
E|-0-0-0-0-0-0-----------------------------------------------------|
pm............
[ Tab from: http://www.guitartabs.cc/tabs/c/crackout/you_dumb_fuck_tab_ver_2.html ]
Chorus (2 guitars):
Guitar 1 (play each one loads)
e|-----------------------------------------------------------------|
B|-----------------------------------------------------------------|
G|-13----------14---------16---------------------------------------|
D|--x-----------x----------x---------------------------------------|
A|-11----------12---------14---------------------------------------|
E|-----------------------------------------------------------------|

Guitar 2
e|-----------------------------------------------------------------|
B|-----------------------------------------------------------------|
G|-----------------------------------------------------------------|
D|-2222222222222222-77777777-44444444------------------------------|
A|-2222222222222222-77777777-44444444------------------------------|
E|-0000000000000000-55555555-22222222------------------------------|

Bridge:                you can't work it out...
e|-----------------------------------------------------------------|
B|-----------------------------------------------------------------|
G|11-11-9-9------------9-8-9------7-7-7-7-7-7-7--------------------|
D|-*--*-*-*--6-6--6-6--9-8-9------7-7-7-7-7-7-7--------------------|
A|-9--9-7-7--6-6--6-6--7-6-7------5-5-5-5-5-5-5--------------------|  
E|-----------4-4--4-4----------------------------------------------|
               pm   pm         pm.............

Solo:
e|-----------------------------------------------------------------|
B|-----------------------------------------------------------------|
G|-9-9-9--6-6-6--9-9-9--11-11-11--6-6-6--9-9-9--11-11-11---6-------|
D|-*-*-*--*-*-*--*-*-*--*--*--*---*-*-*--*-*-*--*--*--*----*-------|
A|-7-7-7--4-4-4--7-7-7--9--9--9---4-4-4--7-7-7--9--9--9----4-------|
E|-----------------------------------------------------------------|

e|-----------------------------------------------------------------|
B|-----------------------------------------------------------------|
G|-13-13-13--14-14-14--16-16-16------------------------------------|
D|--*--*--*---*--*--*---*--*--*------------------------------------|
A|-11-11-11--12-12-12--14-14-14--(x2)------------------------------|
E|-----------------------------------------------------------------|

outro:
e|-----------------------------------------------------------------|
B|-----------------------------------------------------------------|
G|----6--6-----6--6-----4-------8-8--------------------------------|
D|-2--6--6--2--6--6--2--4--4----8-8--2->>>>>>----------------------|
A|-2--4--4--2--4--4--2--2--4----6-6--2->>>>>>----------------------|
E|-0--------0--------0-----2---------0->>>>>>----------------------|
=======================================================================
Comments