Cpm 22 - Desconfio Chords & Tabs

 

Desconfio Chords & Tabs

Cpm 22 Chords & Tabs

Version: 1 Type: Bass Tab 0 ratings
1 star 2 stars 3 stars 4 stars 5 stars
comments

Desconfio Bass Tab

   
CPM 22
Desconfio

Verse:
G|-----------------------------------------------------------------------------------|
D|-----------------------------------------------------------------------------------|
A|-5--5-5-5-5-5-5-5------------------2--2--2--2--------------------------------------|
E|------------------3--3-3-3-3-3-3-3-------------5--5--5--5--3--3--3--3--3--3--3--3--|

Pre-Chorus:
G|---------------------------------|
D|---------------------------------|
A|-.-.-.-.-.-.-.-.-.-.-.-.-5-5-5-5-|
E|-5-5-5-5-5-5-5-5-3-3-3-3---------| 2x

G|--------------------|
D|--------------------|
A|-.-.-.-.-.-.-.-.----|
E|-5-5-5-5-5-5-5-5-3~-|
[ Tab from: http://www.guitartabs.cc/tabs/c/cpm_22/desconfio_btab.html ]
Chorus
G|--------------------------------|
D|--------------------------------|
A|-5--5-5-5-------2-2-2-2---------|
E|----------3--333--------5-5-5-5-| 4x

Bridge
G|-------------------|
D|-------------------|
A|-5-5-4h5-5-4h5-5-5-|
E|-------------------|

Solo
G|-------------------------------------|
D|-------------------------------------|
A|-------------------5--5-5-5-5--5-5-5-|
E|-0--0-0-0-3--3-3-3-------------------| 3x

G|---------------------------------------------------------|
D|---------------------------------------------------------|
A|-------------------5--5-5-5-5--5-5-5-5--5-5-5-5--5-5-5-5-|
E|-0--0-0-0-3--3-3-3---------------------------------------|

End
G|---------------------------|
D|---------------------------|
A|-7---5----------7---5------|
E|---------5~-------------5~-|
Comments