Cpm 22 - Anteontem Chords & Tabs

 

Anteontem Chords & Tabs

Cpm 22 Chords & Tabs

Version: 1 Type: Bass Tab 0 ratings
1 star 2 stars 3 stars 4 stars 5 stars
comments

Anteontem Bass Tab

Anteontem - CPM 22
por Livia 

Intro
G-------------------------------
D-------------------------------
A-3333...--8-7-3-8-7---8-7-10---
E--------------------5----------

Verso
G------------------------------------------
D------------------------------------------
A-33333333----------555555-77-8888-8-7-5-3-
E----------33333333------------------------
[ Tab from: http://www.guitartabs.cc/tabs/c/cpm_22/anteontem_btab.html ]
Refrão (parte 1)
G-------------
D-------------
A-3>--5>-8>---
E---3>--------

Refrão (parte 2)
G--------------------------------------
D--------------------------------------
A-33333333----------55555555-88888888--
E----------33333333--------------------

Bridge 
G---------------------------
D---------------------------
A-3-2---3-2---3-2---3-2-----
E-----3-----1-----3-----1---
Comments