Coyote Shivers - Sugar High Chords & Tabs

 

Sugar High Chords & Tabs

Coyote Shivers Chords & Tabs

Version: 2 Type: Tab 0 ratings
1 star 2 stars 3 stars 4 stars 5 stars
comments

Sugar High Tab

--------------------------------------------------------------------------------
                           Sugar High By Coyote Shivers
--------------------------------------------------------------------------------
Standard Tuning

Intro
e|--------------------------------------------|
B|--------------------------------------------|
G|--------7-----------------------------------|
D|---5----7----2------------------------------|
A|---5----5----2----10-10-10-10-10-10-10-10---|
E|---3---------0-----8--8--8--8--8--8--8--8---|
[ Tab from: http://www.guitartabs.cc/tabs/c/coyote_shivers/sugar_high_tab_ver_2.html ]
Verse: Palm-Muted
e|-----------------------------|
B|-----------------------------|
G|---------7-------------------|
D|---5-----7-x5--2-----10------|
A|---5-x5--5-----2-x5---8-x5---|
E|---3-----------0------8------|

Chorus
e|-----------------|
B|-----------------|
G|---7-------------|
D|---7-x8--10------|
A|---5-----10-x8---|
E|----------8------|

Interlude
e|-----------------------------------------------------------|
B|-----------------------------------------------------------|
G|---7--777--777--777--7-------------------------------------|
D|---7--777--777--777--7----10--101010--101010--101010--10---|
A|---5--555--555--555--5----10--101010--101010--101010--10---|
E|---------------------------8---8-8-8---8-8-8---8-8-8---8---|

Intro x2
Verse x4
Chorus x4
Verse x4
Chorus x4
Inturlude x2
Intro x2
Chorus x8
Comments